ISO-10303-21;
HEADER;
/****************************************************************
 * Generated by software with PDElib inside                    *
 * PDElib Version v51a, created Wed 07/06/2011                  *
 * ITI Transcendata (http://www.transcendata.com/)              *
 ****************************************************************/
FILE_DESCRIPTION((''),'2;1');
FILE_NAME('j:\\prilohy\\modely\\74724015.stp','2014-09-08T15:05:01',(''),('KNOMI spol. s r. o.'),'Autodesk Inventor 2012','Autodesk Inventor 2012','');
FILE_SCHEMA(('AUTOMOTIVE_DESIGN { 1 2 10303 214 0 1 1 1 }'));
ENDSEC;
DATA;
#5=APPLICATION_CONTEXT('automotive design');
#6=APPLICATION_PROTOCOL_DEFINITION('Draft International Standard','automotive_design',1998,#5);
#7=PRODUCT_CONTEXT('None',#5,'mechanical');
#8=PRODUCT('Oko st.p\X2\0159\X0\\S\mp.p\S\ajec\S\m D22/Tr15','Oko st.p\X2\0159\X0\\S\mp.p\S\ajec\S\m D22/Tr15','None',(#7));
#9=PRODUCT_RELATED_PRODUCT_CATEGORY('part','description',(#8));
#10=PRODUCT_DEFINITION_FORMATION('None','None',#8);
#11=PRODUCT_DEFINITION_CONTEXT('part definition',#5,'design');
#12=PRODUCT_DEFINITION('None','None',#10,#11);
#18=(NAMED_UNIT(*)PLANE_ANGLE_UNIT()SI_UNIT($,.RADIAN.));
#19=DIMENSIONAL_EXPONENTS(0.0,0.0,0.0,0.0,0.0,0.0,0.0);
#20=PLANE_ANGLE_MEASURE_WITH_UNIT(PLANE_ANGLE_MEASURE(0.0174532925),#18);
#24=(CONVERSION_BASED_UNIT('DEGREE',#20)NAMED_UNIT(#19)PLANE_ANGLE_UNIT());
#28=(NAMED_UNIT(*)SI_UNIT($,.STERADIAN.)SOLID_ANGLE_UNIT());
#32=(LENGTH_UNIT()NAMED_UNIT(*)SI_UNIT(.MILLI.,.METRE.));
#34=UNCERTAINTY_MEASURE_WITH_UNIT(LENGTH_MEASURE(0.01),#32,'DISTANCE_ACCURACY_VALUE','');
#36=(GEOMETRIC_REPRESENTATION_CONTEXT(3)GLOBAL_UNCERTAINTY_ASSIGNED_CONTEXT((#34))GLOBAL_UNIT_ASSIGNED_CONTEXT((#24,#28,#32))REPRESENTATION_CONTEXT('None','None'));
#37=AXIS2_PLACEMENT_3D('',#38,#39,#40);
#38=CARTESIAN_POINT('',(0.0,0.0,0.0));
#39=DIRECTION('',(0.0,0.0,1.0));
#40=DIRECTION('',(1.0,0.0,0.0));
#41=SHAPE_REPRESENTATION('',(#37),#36);
#42=PRODUCT_DEFINITION_SHAPE('','',#12);
#43=SHAPE_DEFINITION_REPRESENTATION(#42,#41);
#49=(NAMED_UNIT(*)PLANE_ANGLE_UNIT()SI_UNIT($,.RADIAN.));
#50=DIMENSIONAL_EXPONENTS(0.0,0.0,0.0,0.0,0.0,0.0,0.0);
#51=PLANE_ANGLE_MEASURE_WITH_UNIT(PLANE_ANGLE_MEASURE(0.0174532925),#49);
#55=(CONVERSION_BASED_UNIT('DEGREE',#51)NAMED_UNIT(#50)PLANE_ANGLE_UNIT());
#59=(NAMED_UNIT(*)SI_UNIT($,.STERADIAN.)SOLID_ANGLE_UNIT());
#63=(LENGTH_UNIT()NAMED_UNIT(*)SI_UNIT(.MILLI.,.METRE.));
#65=UNCERTAINTY_MEASURE_WITH_UNIT(LENGTH_MEASURE(0.000001),#63,'DISTANCE_ACCURACY_VALUE','');
#67=(GEOMETRIC_REPRESENTATION_CONTEXT(3)GLOBAL_UNCERTAINTY_ASSIGNED_CONTEXT((#65))GLOBAL_UNIT_ASSIGNED_CONTEXT((#55,#59,#63))REPRESENTATION_CONTEXT('','3D'));
#68=CARTESIAN_POINT('',(-5.498007588177569,4.561774442586275,-19.000000000000039));
#69=DIRECTION('',(0.0,0.0,1.0));
#70=DIRECTION('',(1.0,0.0,0.0));
#71=AXIS2_PLACEMENT_3D('',#68,#69,#70);
#72=PLANE('',#71);
#73=CARTESIAN_POINT('',(-5.498007588177568,17.051770439382857,-19.000000000000039));
#74=VERTEX_POINT('',#73);
#75=CARTESIAN_POINT('',(-5.498007588177568,10.806772440984565,-19.000000000000039));
#76=DIRECTION('',(0.0,0.0,1.0));
#77=DIRECTION('',(0.0,1.0,0.0));
#78=AXIS2_PLACEMENT_3D('',#75,#76,#77);
#79=CIRCLE('',#78,6.244997998398278);
#80=EDGE_CURVE('',#74,#74,#79,.T.);
#81=ORIENTED_EDGE('',*,*,#80,.F.);
#82=EDGE_LOOP('',(#81));
#83=FACE_OUTER_BOUND('',#82,.T.);
#84=ADVANCED_FACE('',(#83),#72,.F.);
#85=CARTESIAN_POINT('',(-5.498007588177569,10.806772440984565,0.0));
#86=DIRECTION('',(0.0,0.0,1.0));
#87=DIRECTION('',(1.0,0.0,0.0));
#88=AXIS2_PLACEMENT_3D('',#85,#86,#87);
#89=SPHERICAL_SURFACE('',#88,20.0);
#90=ORIENTED_EDGE('',*,*,#80,.T.);
#91=EDGE_LOOP('',(#90));
#92=FACE_OUTER_BOUND('',#91,.T.);
#93=CARTESIAN_POINT('',(-20.464637135273335,23.306772440984567,-4.444097208657797));
#94=VERTEX_POINT('',#93);
#95=CARTESIAN_POINT('',(9.468621958918197,23.306772440984567,-4.444097208657787));
#96=VERTEX_POINT('',#95);
#97=CARTESIAN_POINT('',(-5.498007588177569,23.306772440984567,0.0));
#98=DIRECTION('',(0.0,-1.0,0.0));
#99=DIRECTION('',(0.0,0.0,1.0));
#100=AXIS2_PLACEMENT_3D('',#97,#98,#99);
#101=CIRCLE('',#100,15.612494995995993);
#102=EDGE_CURVE('',#94,#96,#101,.T.);
#103=ORIENTED_EDGE('',*,*,#102,.T.);
#104=CARTESIAN_POINT('',(9.468621958918197,-1.693227559015436,-4.444097208657797));
#105=VERTEX_POINT('',#104);
#106=CARTESIAN_POINT('',(-5.498007588177569,10.806772440984565,-4.444097208657785));
#107=DIRECTION('',(0.0,0.0,1.0));
#108=DIRECTION('',(-1.0,0.0,0.0));
#109=AXIS2_PLACEMENT_3D('',#106,#107,#108);
#110=CIRCLE('',#109,19.5);
#111=EDGE_CURVE('',#105,#96,#110,.T.);
#112=ORIENTED_EDGE('',*,*,#111,.F.);
#113=CARTESIAN_POINT('',(-20.464637135273335,-1.693227559015436,-4.444097208657797));
#114=VERTEX_POINT('',#113);
#115=CARTESIAN_POINT('',(-5.498007588177569,-1.693227559015436,0.0));
#116=DIRECTION('',(0.0,1.0,0.0));
#117=DIRECTION('',(0.0,0.0,-1.0));
#118=AXIS2_PLACEMENT_3D('',#115,#116,#117);
#119=CIRCLE('',#118,15.612494995995995);
#120=EDGE_CURVE('',#105,#114,#119,.T.);
#121=ORIENTED_EDGE('',*,*,#120,.T.);
#122=CARTESIAN_POINT('',(-5.498007588177569,10.806772440984565,-4.444097208657785));
#123=DIRECTION('',(0.0,0.0,1.0));
#124=DIRECTION('',(-1.0,0.0,0.0));
#125=AXIS2_PLACEMENT_3D('',#122,#123,#124);
#126=CIRCLE('',#125,19.5);
#127=EDGE_CURVE('',#94,#114,#126,.T.);
#128=ORIENTED_EDGE('',*,*,#127,.F.);
#129=EDGE_LOOP('',(#103,#112,#121,#128));
#130=FACE_BOUND('',#129,.T.);
#131=ADVANCED_FACE('',(#92,#130),#89,.T.);
#132=CARTESIAN_POINT('',(-5.498007588177569,10.806772440984565,23.5));
#133=DIRECTION('',(0.0,0.0,1.0));
#134=DIRECTION('',(1.0,0.0,0.0));
#135=AXIS2_PLACEMENT_3D('',#132,#133,#134);
#136=CYLINDRICAL_SURFACE('',#135,6.5);
#137=CARTESIAN_POINT('',(-0.212939207150459,14.590692657884947,15.101922136200654));
#138=VERTEX_POINT('',#137);
#139=CARTESIAN_POINT('',(-10.783075969204683,14.590692657884947,15.101922136200654));
#140=VERTEX_POINT('',#139);
#141=CARTESIAN_POINT('',(-0.212939207150454,14.590692657884945,15.101922136200653));
#142=CARTESIAN_POINT('',(-0.465976038802418,14.944113681992729,15.190474900950603));
#143=CARTESIAN_POINT('',(-0.755973797083512,15.274232249583653,15.251777709381638));
#144=CARTESIAN_POINT('',(-1.473864090664233,15.93948096303828,15.344075726612774));
#145=CARTESIAN_POINT('',(-1.912505238038171,16.255184543309198,15.365012266836384));
#146=CARTESIAN_POINT('',(-2.772687757638549,16.724246025343778,15.377245710102812));
#147=CARTESIAN_POINT('',(-3.179785944114691,16.895274490992762,15.373340946262502));
#148=CARTESIAN_POINT('',(-3.940634818955392,17.127423056976916,15.363485223650251));
#149=CARTESIAN_POINT('',(-4.288221860510172,17.203064163446708,15.358120441002956));
#150=CARTESIAN_POINT('',(-4.836384002136351,17.276038191583439,15.352606195177907));
#151=CARTESIAN_POINT('',(-5.033586139708886,17.29317854468891,15.351174171771692));
#152=CARTESIAN_POINT('',(-5.396585337530259,17.308086405104373,15.349931112257796));
#153=CARTESIAN_POINT('',(-5.562068512499514,17.30856189120928,15.349890032390372));
#154=CARTESIAN_POINT('',(-5.920242656906947,17.295913426772582,15.35094746277635));
#155=CARTESIAN_POINT('',(-6.112659274562253,17.280521826100991,15.352239924897875));
#156=CARTESIAN_POINT('',(-6.635518552330159,17.215174175432225,15.357243732337265));
#157=CARTESIAN_POINT('',(-6.963208639925877,17.148275146888881,15.362095491837467));
#158=CARTESIAN_POINT('',(-8.081042193899977,16.828791191207294,15.377150183274715));
#159=CARTESIAN_POINT('',(-8.825885231849396,16.451038351889157,15.38529306128715));
#160=CARTESIAN_POINT('',(-9.981636540210452,15.555607920159694,15.299653744514268));
#161=CARTESIAN_POINT('',(-10.419815929246266,15.098064389112286,15.229048612814701));
#162=CARTESIAN_POINT('',(-10.783075969204681,14.590692657884949,15.101922136200656));
#163=B_SPLINE_CURVE_WITH_KNOTS('',3,(#141,#142,#143,#144,#145,#146,#147,#148,#149,#150,#151,#152,#153,#154,#155,#156,#157,#158,#159,#160,#161,#162),.UNSPECIFIED.,.F.,.U.,(4,2,2,2,2,2,2,2,2,2,4),(-1.238617345126343,-1.105681806115622,-0.944040861003016,-0.812113481856587,-0.705780415691983,-0.646542583570248,-0.597013458561959,-0.539245170855269,-0.439250028580363,-0.191047262268258,0.0),.UNSPECIFIED.);
#164=EDGE_CURVE('',#138,#140,#163,.T.);
#165=ORIENTED_EDGE('',*,*,#164,.F.);
#166=CARTESIAN_POINT('',(-0.212939207150455,7.022852224084185,15.101922136200654));
#167=VERTEX_POINT('',#166);
#168=CARTESIAN_POINT('',(-0.212939207150454,7.022852224084184,15.101922136200654));
#169=CARTESIAN_POINT('',(0.068578635493375,7.416053180649447,15.003402157390449));
#170=CARTESIAN_POINT('',(0.311383717738931,7.849455776084293,14.909497693701484));
#171=CARTESIAN_POINT('',(0.834732268665024,9.105096079154942,14.6978045790199));
#172=CARTESIAN_POINT('',(1.001992411822431,9.979686157258261,14.620191517213442));
#173=CARTESIAN_POINT('',(1.001992411822431,10.806772440984565,14.620191517213442));
#174=CARTESIAN_POINT('',(1.001992411822431,11.633858724710869,14.620191517213442));
#175=CARTESIAN_POINT('',(0.834732268665025,12.508448802814186,14.6978045790199));
#176=CARTESIAN_POINT('',(0.311383717738931,13.764089105884839,14.909497693701484));
#177=CARTESIAN_POINT('',(0.068578635493373,14.197491701319686,15.003402157390449));
#178=CARTESIAN_POINT('',(-0.212939207150457,14.590692657884949,15.101922136200654));
#179=B_SPLINE_CURVE_WITH_KNOTS('',3,(#168,#169,#170,#171,#172,#173,#174,#175,#176,#177,#178),.UNSPECIFIED.,.F.,.U.,(4,2,3,2,4),(-0.389934090020044,-0.248125885117891,0.0,0.248125885117891,0.389934090020045),.UNSPECIFIED.);
#180=EDGE_CURVE('',#167,#138,#179,.T.);
#181=ORIENTED_EDGE('',*,*,#180,.F.);
#182=CARTESIAN_POINT('',(-10.783075969204688,7.022852224084185,15.101922136200654));
#183=VERTEX_POINT('',#182);
#184=CARTESIAN_POINT('',(-10.783075969204685,7.022852224084184,15.101922136200654));
#185=CARTESIAN_POINT('',(-10.530039137552743,6.66943119997643,15.190474900950599));
#186=CARTESIAN_POINT('',(-10.240041379271682,6.339312632385527,15.251777709381631));
#187=CARTESIAN_POINT('',(-9.522151085690924,5.674063918930859,15.344075726612774));
#188=CARTESIAN_POINT('',(-9.083509938316983,5.358360338659942,15.365012266836386));
#189=CARTESIAN_POINT('',(-8.223327418716607,4.889298856625358,15.377245710102814));
#190=CARTESIAN_POINT('',(-7.816229232240453,4.718270390976372,15.373340946262502));
#191=CARTESIAN_POINT('',(-7.055380357399788,4.486121824992227,15.363485223650251));
#192=CARTESIAN_POINT('',(-6.707793315844993,4.410480718522423,15.358120441002951));
#193=CARTESIAN_POINT('',(-6.159631174218744,4.337506690385681,15.352606195177902));
#194=CARTESIAN_POINT('',(-5.962429036646232,4.320366337280218,15.351174171771691));
#195=CARTESIAN_POINT('',(-5.599429838824873,4.305458476864756,15.349931112257792));
#196=CARTESIAN_POINT('',(-5.433946663855622,4.304982990759849,15.349890032390372));
#197=CARTESIAN_POINT('',(-5.075772519448213,4.317631455196547,15.35094746277635));
#198=CARTESIAN_POINT('',(-4.883355901792924,4.333023055868131,15.352239924897873));
#199=CARTESIAN_POINT('',(-4.360496624024972,4.398370706536904,15.357243732337263));
#200=CARTESIAN_POINT('',(-4.032806536429244,4.465269735080252,15.362095491837461));
#201=CARTESIAN_POINT('',(-2.914972982455156,4.784753690761836,15.377150183274711));
#202=CARTESIAN_POINT('',(-2.170129944505742,5.162506530079978,15.385293061287149));
#203=CARTESIAN_POINT('',(-1.014378636144697,6.057936961809428,15.299653744514266));
#204=CARTESIAN_POINT('',(-0.576199247108874,6.51548049285684,15.229048612814699));
#205=CARTESIAN_POINT('',(-0.212939207150454,7.022852224084183,15.101922136200653));
#206=B_SPLINE_CURVE_WITH_KNOTS('',3,(#184,#185,#186,#187,#188,#189,#190,#191,#192,#193,#194,#195,#196,#197,#198,#199,#200,#201,#202,#203,#204,#205),.UNSPECIFIED.,.F.,.U.,(4,2,2,2,2,2,2,2,2,2,4),(-1.238617345126279,-1.105681806115568,-0.944040861002996,-0.812113481856586,-0.705780415692003,-0.646542583570268,-0.597013458561969,-0.539245170855272,-0.439250028580372,-0.19104726226826,0.0),.UNSPECIFIED.);
#207=EDGE_CURVE('',#183,#167,#206,.T.);
#208=ORIENTED_EDGE('',*,*,#207,.F.);
#209=CARTESIAN_POINT('',(-10.783075969204683,14.590692657884947,15.101922136200654));
#210=CARTESIAN_POINT('',(-11.064593811848514,14.197491701319684,15.003402157390449));
#211=CARTESIAN_POINT('',(-11.307398894094069,13.764089105884835,14.909497693701486));
#212=CARTESIAN_POINT('',(-11.830747445020162,12.508448802814186,14.697804579019902));
#213=CARTESIAN_POINT('',(-11.998007588177568,11.633858724710869,14.620191517213442));
#214=CARTESIAN_POINT('',(-11.998007588177568,9.979686157258261,14.620191517213442));
#215=CARTESIAN_POINT('',(-11.83074744502016,9.105096079154942,14.697804579019902));
#216=CARTESIAN_POINT('',(-11.307398894094067,7.849455776084296,14.909497693701486));
#217=CARTESIAN_POINT('',(-11.064593811848514,7.416053180649445,15.003402157390449));
#218=CARTESIAN_POINT('',(-10.783075969204685,7.022852224084184,15.101922136200654));
#219=B_SPLINE_CURVE_WITH_KNOTS('',3,(#209,#210,#211,#212,#213,#214,#215,#216,#217,#218),.UNSPECIFIED.,.F.,.U.,(4,2,2,2,4),(1.593998998409739,1.735807203311892,1.983933088429783,2.232058973547675,2.373867178449828),.UNSPECIFIED.);
#220=EDGE_CURVE('',#140,#183,#219,.T.);
#221=ORIENTED_EDGE('',*,*,#220,.F.);
#222=EDGE_LOOP('',(#165,#181,#208,#221));
#223=FACE_OUTER_BOUND('',#222,.T.);
#224=CARTESIAN_POINT('',(-11.998007588177568,10.806772440984565,20.354074834545376));
#225=VERTEX_POINT('',#224);
#226=CARTESIAN_POINT('',(-5.498007588177569,10.806772440984565,20.354074834545376));
#227=DIRECTION('',(0.0,0.0,-1.0));
#228=DIRECTION('',(1.0,0.0,0.0));
#229=AXIS2_PLACEMENT_3D('',#226,#227,#228);
#230=CIRCLE('',#229,6.5);
#231=EDGE_CURVE('',#225,#225,#230,.T.);
#232=ORIENTED_EDGE('',*,*,#231,.F.);
#233=EDGE_LOOP('',(#232));
#234=FACE_BOUND('',#233,.T.);
#235=ADVANCED_FACE('',(#223,#234),#136,.F.);
#236=CARTESIAN_POINT('',(-5.49800758817757,7.022852224084185,0.0));
#237=DIRECTION('',(0.0,1.0,0.0));
#238=DIRECTION('',(0.0,0.0,-1.0));
#239=AXIS2_PLACEMENT_3D('',#236,#237,#238);
#240=TOROIDAL_SURFACE('',#239,9.999999999999996,6.000000000000001);
#241=CARTESIAN_POINT('',(5.501992411822431,1.106772440984569,-1.347111E-015));
#242=VERTEX_POINT('',#241);
#243=CARTESIAN_POINT('',(-5.49800758817757,1.106772440984569,0.0));
#244=DIRECTION('',(0.0,1.0,0.0));
#245=DIRECTION('',(-1.0,0.0,0.0));
#246=AXIS2_PLACEMENT_3D('',#243,#244,#245);
#247=CIRCLE('',#246,11.0);
#248=EDGE_CURVE('',#242,#242,#247,.T.);
#249=ORIENTED_EDGE('',*,*,#248,.F.);
#250=EDGE_LOOP('',(#249));
#251=FACE_OUTER_BOUND('',#250,.T.);
#252=ORIENTED_EDGE('',*,*,#207,.T.);
#253=CARTESIAN_POINT('',(-5.49800758817757,7.022852224084185,0.0));
#254=DIRECTION('',(0.0,1.0,0.0));
#255=DIRECTION('',(0.0,0.0,-1.0));
#256=AXIS2_PLACEMENT_3D('',#253,#254,#255);
#257=CIRCLE('',#256,15.999999999999996);
#258=EDGE_CURVE('',#167,#183,#257,.T.);
#259=ORIENTED_EDGE('',*,*,#258,.T.);
#260=EDGE_LOOP('',(#252,#259));
#261=FACE_BOUND('',#260,.T.);
#262=ADVANCED_FACE('',(#251,#261),#240,.F.);
#263=CARTESIAN_POINT('',(-5.49800758817757,14.590692657884947,0.0));
#264=DIRECTION('',(0.0,-1.0,0.0));
#265=DIRECTION('',(0.0,0.0,-1.0));
#266=AXIS2_PLACEMENT_3D('',#263,#264,#265);
#267=TOROIDAL_SURFACE('',#266,9.999999999999996,6.000000000000001);
#268=CARTESIAN_POINT('',(5.501992411822431,20.506772440984562,1.347111E-015));
#269=VERTEX_POINT('',#268);
#270=CARTESIAN_POINT('',(-5.49800758817757,20.506772440984562,0.0));
#271=DIRECTION('',(0.0,-1.0,0.0));
#272=DIRECTION('',(-1.0,0.0,0.0));
#273=AXIS2_PLACEMENT_3D('',#270,#271,#272);
#274=CIRCLE('',#273,11.0);
#275=EDGE_CURVE('',#269,#269,#274,.T.);
#276=ORIENTED_EDGE('',*,*,#275,.F.);
#277=EDGE_LOOP('',(#276));
#278=FACE_OUTER_BOUND('',#277,.T.);
#279=ORIENTED_EDGE('',*,*,#164,.T.);
#280=CARTESIAN_POINT('',(-5.49800758817757,14.590692657884947,0.0));
#281=DIRECTION('',(0.0,-1.0,0.0));
#282=DIRECTION('',(0.0,0.0,-1.0));
#283=AXIS2_PLACEMENT_3D('',#280,#281,#282);
#284=CIRCLE('',#283,15.999999999999996);
#285=EDGE_CURVE('',#140,#138,#284,.T.);
#286=ORIENTED_EDGE('',*,*,#285,.T.);
#287=EDGE_LOOP('',(#279,#286));
#288=FACE_BOUND('',#287,.T.);
#289=ADVANCED_FACE('',(#278,#288),#267,.F.);
#290=CARTESIAN_POINT('',(-5.498007588177569,10.806772440984565,32.75));
#291=DIRECTION('',(0.0,0.0,1.0));
#292=DIRECTION('',(-1.0,0.0,0.0));
#293=AXIS2_PLACEMENT_3D('',#290,#291,#292);
#294=CONICAL_SURFACE('',#293,7.825000000000001,45.000000000000135);
#295=CARTESIAN_POINT('',(2.076992411822431,10.806772440984565,32.500000000000007));
#296=VERTEX_POINT('',#295);
#297=CARTESIAN_POINT('',(-5.498007588177569,10.806772440984565,32.500000000000007));
#298=DIRECTION('',(0.0,0.0,-1.0));
#299=DIRECTION('',(-1.0,0.0,0.0));
#300=AXIS2_PLACEMENT_3D('',#297,#298,#299);
#301=CIRCLE('',#300,7.575000000000001);
#302=EDGE_CURVE('',#296,#296,#301,.T.);
#303=ORIENTED_EDGE('',*,*,#302,.T.);
#304=EDGE_LOOP('',(#303));
#305=FACE_OUTER_BOUND('',#304,.T.);
#306=CARTESIAN_POINT('',(2.576992411822432,10.806772440984565,33.0));
#307=VERTEX_POINT('',#306);
#308=CARTESIAN_POINT('',(-5.498007588177569,10.806772440984565,33.0));
#309=DIRECTION('',(0.0,0.0,1.0));
#310=DIRECTION('',(-1.0,0.0,0.0));
#311=AXIS2_PLACEMENT_3D('',#308,#309,#310);
#312=CIRCLE('',#311,8.075000000000001);
#313=EDGE_CURVE('',#307,#307,#312,.T.);
#314=ORIENTED_EDGE('',*,*,#313,.T.);
#315=EDGE_LOOP('',(#314));
#316=FACE_BOUND('',#315,.T.);
#317=ADVANCED_FACE('',(#305,#316),#294,.F.);
#318=CARTESIAN_POINT('',(-5.498007588177569,10.806772440984565,27.0));
#319=DIRECTION('',(0.0,0.0,1.0));
#320=DIRECTION('',(1.0,0.0,0.0));
#321=AXIS2_PLACEMENT_3D('',#318,#319,#320);
#322=CYLINDRICAL_SURFACE('',#321,7.575000000000001);
#323=CARTESIAN_POINT('',(2.076992411822431,10.806772440984565,21.0));
#324=VERTEX_POINT('',#323);
#325=CARTESIAN_POINT('',(-5.498007588177569,10.806772440984565,21.0));
#326=DIRECTION('',(0.0,0.0,1.0));
#327=DIRECTION('',(1.0,0.0,0.0));
#328=AXIS2_PLACEMENT_3D('',#325,#326,#327);
#329=CIRCLE('',#328,7.575000000000001);
#330=EDGE_CURVE('',#324,#324,#329,.T.);
#331=ORIENTED_EDGE('',*,*,#330,.F.);
#332=EDGE_LOOP('',(#331));
#333=FACE_OUTER_BOUND('',#332,.T.);
#334=ORIENTED_EDGE('',*,*,#302,.F.);
#335=EDGE_LOOP('',(#334));
#336=FACE_BOUND('',#335,.T.);
#337=ADVANCED_FACE('',(#333,#336),#322,.F.);
#338=CARTESIAN_POINT('',(-5.498007588177569,10.806772440984565,33.0));
#339=DIRECTION('',(0.0,0.0,-1.0));
#340=DIRECTION('',(-1.0,0.0,0.0));
#341=AXIS2_PLACEMENT_3D('',#338,#339,#340);
#342=PLANE('',#341);
#343=CARTESIAN_POINT('',(5.001992411822432,10.806772440984567,33.0));
#344=VERTEX_POINT('',#343);
#345=CARTESIAN_POINT('',(-5.498007588177569,10.806772440984565,33.0));
#346=DIRECTION('',(0.0,0.0,-1.0));
#347=DIRECTION('',(-1.0,0.0,0.0));
#348=AXIS2_PLACEMENT_3D('',#345,#346,#347);
#349=CIRCLE('',#348,10.5);
#350=EDGE_CURVE('',#344,#344,#349,.T.);
#351=ORIENTED_EDGE('',*,*,#350,.F.);
#352=EDGE_LOOP('',(#351));
#353=FACE_OUTER_BOUND('',#352,.T.);
#354=ORIENTED_EDGE('',*,*,#313,.F.);
#355=EDGE_LOOP('',(#354));
#356=FACE_BOUND('',#355,.T.);
#357=ADVANCED_FACE('',(#353,#356),#342,.F.);
#358=CARTESIAN_POINT('',(-5.498007588177569,10.806772440984565,19.124591498905275));
#359=DIRECTION('',(0.0,0.0,-1.0));
#360=DIRECTION('',(-1.0,0.0,0.0));
#361=AXIS2_PLACEMENT_3D('',#358,#359,#360);
#362=TOROIDAL_SURFACE('',#361,14.500000000000002,4.0);
#363=CARTESIAN_POINT('',(5.001992411822432,10.806772440984563,19.124591498905275));
#364=VERTEX_POINT('',#363);
#365=CARTESIAN_POINT('',(-5.498007588177569,10.806772440984565,19.124591498905275));
#366=DIRECTION('',(0.0,0.0,-1.0));
#367=DIRECTION('',(-1.0,0.0,0.0));
#368=AXIS2_PLACEMENT_3D('',#365,#366,#367);
#369=CIRCLE('',#368,10.5);
#370=EDGE_CURVE('',#364,#364,#369,.T.);
#371=ORIENTED_EDGE('',*,*,#370,.T.);
#372=EDGE_LOOP('',(#371));
#373=FACE_OUTER_BOUND('',#372,.T.);
#374=CARTESIAN_POINT('',(6.585325745155766,10.806772440984567,15.937159582421064));
#375=VERTEX_POINT('',#374);
#376=CARTESIAN_POINT('',(-5.498007588177569,10.806772440984565,15.937159582421064));
#377=DIRECTION('',(0.0,0.0,1.0));
#378=DIRECTION('',(-1.0,0.0,0.0));
#379=AXIS2_PLACEMENT_3D('',#376,#377,#378);
#380=CIRCLE('',#379,12.083333333333336);
#381=EDGE_CURVE('',#375,#375,#380,.T.);
#382=ORIENTED_EDGE('',*,*,#381,.T.);
#383=EDGE_LOOP('',(#382));
#384=FACE_BOUND('',#383,.T.);
#385=ADVANCED_FACE('',(#373,#384),#362,.F.);
#386=CARTESIAN_POINT('',(-5.498007588177569,10.806772440984565,0.0));
#387=DIRECTION('',(0.0,0.0,1.0));
#388=DIRECTION('',(1.0,0.0,0.0));
#389=AXIS2_PLACEMENT_3D('',#386,#387,#388);
#390=SPHERICAL_SURFACE('',#389,20.0);
#391=CARTESIAN_POINT('',(9.468621958918197,23.306772440984567,4.444097208657787));
#392=VERTEX_POINT('',#391);
#393=CARTESIAN_POINT('',(-20.464637135273335,23.306772440984567,4.444097208657797));
#394=VERTEX_POINT('',#393);
#395=CARTESIAN_POINT('',(-5.498007588177569,23.306772440984567,0.0));
#396=DIRECTION('',(0.0,-1.0,0.0));
#397=DIRECTION('',(0.0,0.0,1.0));
#398=AXIS2_PLACEMENT_3D('',#395,#396,#397);
#399=CIRCLE('',#398,15.612494995995993);
#400=EDGE_CURVE('',#392,#394,#399,.T.);
#401=ORIENTED_EDGE('',*,*,#400,.T.);
#402=CARTESIAN_POINT('',(-20.464637135273335,-1.693227559015436,4.444097208657797));
#403=VERTEX_POINT('',#402);
#404=CARTESIAN_POINT('',(-5.498007588177569,10.806772440984565,4.444097208657785));
#405=DIRECTION('',(0.0,0.0,-1.0));
#406=DIRECTION('',(-1.0,0.0,0.0));
#407=AXIS2_PLACEMENT_3D('',#404,#405,#406);
#408=CIRCLE('',#407,19.5);
#409=EDGE_CURVE('',#403,#394,#408,.T.);
#410=ORIENTED_EDGE('',*,*,#409,.F.);
#411=CARTESIAN_POINT('',(9.468621958918197,-1.693227559015436,4.444097208657797));
#412=VERTEX_POINT('',#411);
#413=CARTESIAN_POINT('',(-5.498007588177569,-1.693227559015436,0.0));
#414=DIRECTION('',(0.0,1.0,0.0));
#415=DIRECTION('',(0.0,0.0,-1.0));
#416=AXIS2_PLACEMENT_3D('',#413,#414,#415);
#417=CIRCLE('',#416,15.612494995995995);
#418=EDGE_CURVE('',#403,#412,#417,.T.);
#419=ORIENTED_EDGE('',*,*,#418,.T.);
#420=CARTESIAN_POINT('',(-5.498007588177569,10.806772440984565,4.444097208657785));
#421=DIRECTION('',(0.0,0.0,-1.0));
#422=DIRECTION('',(-1.0,0.0,0.0));
#423=AXIS2_PLACEMENT_3D('',#420,#421,#422);
#424=CIRCLE('',#423,19.5);
#425=EDGE_CURVE('',#392,#412,#424,.T.);
#426=ORIENTED_EDGE('',*,*,#425,.F.);
#427=EDGE_LOOP('',(#401,#410,#419,#426));
#428=FACE_OUTER_BOUND('',#427,.T.);
#429=ORIENTED_EDGE('',*,*,#381,.F.);
#430=EDGE_LOOP('',(#429));
#431=FACE_BOUND('',#430,.T.);
#432=ADVANCED_FACE('',(#428,#431),#390,.T.);
#433=CARTESIAN_POINT('',(-5.498007588177569,10.806772440984565,0.0));
#434=DIRECTION('',(0.0,0.0,1.0));
#435=DIRECTION('',(-1.0,0.0,0.0));
#436=AXIS2_PLACEMENT_3D('',#433,#434,#435);
#437=CYLINDRICAL_SURFACE('',#436,10.5);
#438=ORIENTED_EDGE('',*,*,#350,.T.);
#439=EDGE_LOOP('',(#438));
#440=FACE_OUTER_BOUND('',#439,.T.);
#441=ORIENTED_EDGE('',*,*,#370,.F.);
#442=EDGE_LOOP('',(#441));
#443=FACE_BOUND('',#442,.T.);
#444=ADVANCED_FACE('',(#440,#443),#437,.T.);
#445=CARTESIAN_POINT('',(-5.49800758817757,10.806772440984567,0.0));
#446=DIRECTION('',(0.0,1.0,0.0));
#447=DIRECTION('',(0.0,0.0,-1.0));
#448=AXIS2_PLACEMENT_3D('',#445,#446,#447);
#449=CYLINDRICAL_SURFACE('',#448,15.999999999999996);
#450=ORIENTED_EDGE('',*,*,#220,.T.);
#451=ORIENTED_EDGE('',*,*,#258,.F.);
#452=ORIENTED_EDGE('',*,*,#180,.T.);
#453=ORIENTED_EDGE('',*,*,#285,.F.);
#454=EDGE_LOOP('',(#450,#451,#452,#453));
#455=FACE_OUTER_BOUND('',#454,.T.);
#456=ADVANCED_FACE('',(#455),#449,.F.);
#457=CARTESIAN_POINT('',(-5.49800758817757,-47.084988440527702,0.0));
#458=DIRECTION('',(0.0,1.0,0.0));
#459=DIRECTION('',(-1.0,0.0,0.0));
#460=AXIS2_PLACEMENT_3D('',#457,#458,#459);
#461=CYLINDRICAL_SURFACE('',#460,11.0);
#462=CARTESIAN_POINT('',(-16.498007588177572,23.306772440984567,0.0));
#463=VERTEX_POINT('',#462);
#464=CARTESIAN_POINT('',(-5.49800758817757,23.306772440984567,0.0));
#465=DIRECTION('',(0.0,-1.0,0.0));
#466=DIRECTION('',(-1.0,0.0,0.0));
#467=AXIS2_PLACEMENT_3D('',#464,#465,#466);
#468=CIRCLE('',#467,11.0);
#469=EDGE_CURVE('',#463,#463,#468,.T.);
#470=ORIENTED_EDGE('',*,*,#469,.F.);
#471=EDGE_LOOP('',(#470));
#472=FACE_OUTER_BOUND('',#471,.T.);
#473=ORIENTED_EDGE('',*,*,#275,.T.);
#474=EDGE_LOOP('',(#473));
#475=FACE_BOUND('',#474,.T.);
#476=ADVANCED_FACE('',(#472,#475),#461,.F.);
#477=CARTESIAN_POINT('',(-5.49800758817757,-47.084988440527702,0.0));
#478=DIRECTION('',(0.0,1.0,0.0));
#479=DIRECTION('',(-1.0,0.0,0.0));
#480=AXIS2_PLACEMENT_3D('',#477,#478,#479);
#481=CYLINDRICAL_SURFACE('',#480,11.0);
#482=ORIENTED_EDGE('',*,*,#248,.T.);
#483=EDGE_LOOP('',(#482));
#484=FACE_OUTER_BOUND('',#483,.T.);
#485=CARTESIAN_POINT('',(5.501992411822431,-1.693227559015433,-1.347111E-015));
#486=VERTEX_POINT('',#485);
#487=CARTESIAN_POINT('',(-5.49800758817757,-1.693227559015433,0.0));
#488=DIRECTION('',(0.0,1.0,0.0));
#489=DIRECTION('',(-1.0,0.0,0.0));
#490=AXIS2_PLACEMENT_3D('',#487,#488,#489);
#491=CIRCLE('',#490,11.0);
#492=EDGE_CURVE('',#486,#486,#491,.T.);
#493=ORIENTED_EDGE('',*,*,#492,.F.);
#494=EDGE_LOOP('',(#493));
#495=FACE_BOUND('',#494,.T.);
#496=ADVANCED_FACE('',(#484,#495),#481,.F.);
#497=CARTESIAN_POINT('',(-20.464637135273335,23.306772440984567,33.0));
#498=DIRECTION('',(0.0,-1.0,0.0));
#499=DIRECTION('',(0.0,0.0,-1.0));
#500=AXIS2_PLACEMENT_3D('',#497,#498,#499);
#501=PLANE('',#500);
#502=ORIENTED_EDGE('',*,*,#400,.F.);
#503=CARTESIAN_POINT('',(9.468621958918197,23.306772440984567,-4.444097208657787));
#504=DIRECTION('',(0.0,0.0,1.0));
#505=VECTOR('',#504,8.888194417315567);
#506=LINE('',#503,#505);
#507=EDGE_CURVE('',#96,#392,#506,.T.);
#508=ORIENTED_EDGE('',*,*,#507,.F.);
#509=ORIENTED_EDGE('',*,*,#102,.F.);
#510=CARTESIAN_POINT('',(-20.464637135273335,23.306772440984567,4.444097208657794));
#511=DIRECTION('',(0.0,0.0,-1.0));
#512=VECTOR('',#511,8.888194417315596);
#513=LINE('',#510,#512);
#514=EDGE_CURVE('',#394,#94,#513,.T.);
#515=ORIENTED_EDGE('',*,*,#514,.F.);
#516=EDGE_LOOP('',(#502,#508,#509,#515));
#517=FACE_OUTER_BOUND('',#516,.T.);
#518=ORIENTED_EDGE('',*,*,#469,.T.);
#519=EDGE_LOOP('',(#518));
#520=FACE_BOUND('',#519,.T.);
#521=ADVANCED_FACE('',(#517,#520),#501,.F.);
#522=CARTESIAN_POINT('',(9.468621958918197,-1.693227559015436,33.0));
#523=DIRECTION('',(0.0,1.0,0.0));
#524=DIRECTION('',(0.0,0.0,1.0));
#525=AXIS2_PLACEMENT_3D('',#522,#523,#524);
#526=PLANE('',#525);
#527=ORIENTED_EDGE('',*,*,#418,.F.);
#528=CARTESIAN_POINT('',(-20.464637135273335,-1.693227559015436,-4.444097208657801));
#529=DIRECTION('',(0.0,0.0,1.0));
#530=VECTOR('',#529,8.888194417315596);
#531=LINE('',#528,#530);
#532=EDGE_CURVE('',#114,#403,#531,.T.);
#533=ORIENTED_EDGE('',*,*,#532,.F.);
#534=ORIENTED_EDGE('',*,*,#120,.F.);
#535=CARTESIAN_POINT('',(9.468621958918197,-1.693227559015436,4.444097208657794));
#536=DIRECTION('',(0.0,0.0,-1.0));
#537=VECTOR('',#536,8.888194417315596);
#538=LINE('',#535,#537);
#539=EDGE_CURVE('',#412,#105,#538,.T.);
#540=ORIENTED_EDGE('',*,*,#539,.F.);
#541=EDGE_LOOP('',(#527,#533,#534,#540));
#542=FACE_OUTER_BOUND('',#541,.T.);
#543=ORIENTED_EDGE('',*,*,#492,.T.);
#544=EDGE_LOOP('',(#543));
#545=FACE_BOUND('',#544,.T.);
#546=ADVANCED_FACE('',(#542,#545),#526,.F.);
#547=CARTESIAN_POINT('',(-5.498007588177569,10.806772440984565,33.0));
#548=DIRECTION('',(0.0,0.0,-1.0));
#549=DIRECTION('',(-1.0,0.0,0.0));
#550=AXIS2_PLACEMENT_3D('',#547,#548,#549);
#551=CYLINDRICAL_SURFACE('',#550,19.5);
#552=ORIENTED_EDGE('',*,*,#514,.T.);
#553=ORIENTED_EDGE('',*,*,#127,.T.);
#554=ORIENTED_EDGE('',*,*,#532,.T.);
#555=ORIENTED_EDGE('',*,*,#409,.T.);
#556=EDGE_LOOP('',(#552,#553,#554,#555));
#557=FACE_OUTER_BOUND('',#556,.T.);
#558=ADVANCED_FACE('',(#557),#551,.T.);
#559=CARTESIAN_POINT('',(-5.498007588177569,10.806772440984565,18.724240405433118));
#560=DIRECTION('',(0.0,0.0,1.0));
#561=DIRECTION('',(1.0,0.0,0.0));
#562=AXIS2_PLACEMENT_3D('',#559,#560,#561);
#563=CONICAL_SURFACE('',#562,3.787500000000001,59.000000000000007);
#564=ORIENTED_EDGE('',*,*,#231,.T.);
#565=EDGE_LOOP('',(#564));
#566=FACE_OUTER_BOUND('',#565,.T.);
#567=ORIENTED_EDGE('',*,*,#330,.T.);
#568=EDGE_LOOP('',(#567));
#569=FACE_BOUND('',#568,.T.);
#570=ADVANCED_FACE('',(#566,#569),#563,.F.);
#571=CARTESIAN_POINT('',(-5.498007588177569,10.806772440984565,33.0));
#572=DIRECTION('',(0.0,0.0,-1.0));
#573=DIRECTION('',(-1.0,0.0,0.0));
#574=AXIS2_PLACEMENT_3D('',#571,#572,#573);
#575=CYLINDRICAL_SURFACE('',#574,19.5);
#576=ORIENTED_EDGE('',*,*,#507,.T.);
#577=ORIENTED_EDGE('',*,*,#425,.T.);
#578=ORIENTED_EDGE('',*,*,#539,.T.);
#579=ORIENTED_EDGE('',*,*,#111,.T.);
#580=EDGE_LOOP('',(#576,#577,#578,#579));
#581=FACE_OUTER_BOUND('',#580,.T.);
#582=ADVANCED_FACE('',(#581),#575,.T.);
#583=CLOSED_SHELL('',(#84,#131,#235,#262,#289,#317,#337,#357,#385,#432,#444,#456,#476,#496,#521,#546,#558,#570,#582));
#584=MANIFOLD_SOLID_BREP('T\X2\011B\X0\leso1',#583);
#585=COLOUR_RGB('Kov-Ocel',0.639216005802155,0.639216005802155,0.686275005340576);
#586=FILL_AREA_STYLE_COLOUR('Kov-Ocel',#585);
#587=FILL_AREA_STYLE('Kov-Ocel',(#586));
#588=SURFACE_STYLE_FILL_AREA(#587);
#589=SURFACE_SIDE_STYLE('Kov-Ocel',(#588));
#590=SURFACE_STYLE_USAGE(.BOTH.,#589);
#591=PRESENTATION_STYLE_ASSIGNMENT((#590));
#592=STYLED_ITEM('',(#591),#584);
#593=MECHANICAL_DESIGN_GEOMETRIC_PRESENTATION_REPRESENTATION('',(#592),#36);
#594=ADVANCED_BREP_SHAPE_REPRESENTATION('ABSR',(#584),#36);
#595=SHAPE_REPRESENTATION_RELATIONSHIP('SRR','None',#594,#41);
ENDSEC;
END-ISO-10303-21;
