ISO-10303-21;
HEADER;
/****************************************************************
 * Generated by software with PDElib inside                    *
 * PDElib Version v51a, created Wed 07/06/2011                  *
 * ITI Transcendata (http://www.transcendata.com/)              *
 ****************************************************************/
FILE_DESCRIPTION((''),'2;1');
FILE_NAME('j:\\prilohy\\modely\\74722808.stp','2014-09-08T15:05:19',(''),('KNOMI spol. s r. o.'),'Autodesk Inventor 2012','Autodesk Inventor 2012','');
FILE_SCHEMA(('AUTOMOTIVE_DESIGN { 1 2 10303 214 0 1 1 1 }'));
ENDSEC;
DATA;
#5=APPLICATION_CONTEXT('automotive design');
#6=APPLICATION_PROTOCOL_DEFINITION('Draft International Standard','automotive_design',1998,#5);
#7=PRODUCT_CONTEXT('None',#5,'mechanical');
#8=PRODUCT('Oko st.p\X2\0159\X0\\S\mp.p\S\ajec\S\m D16/Tr08','Oko st.p\X2\0159\X0\\S\mp.p\S\ajec\S\m D16/Tr08','None',(#7));
#9=PRODUCT_RELATED_PRODUCT_CATEGORY('part','description',(#8));
#10=PRODUCT_DEFINITION_FORMATION('None','None',#8);
#11=PRODUCT_DEFINITION_CONTEXT('part definition',#5,'design');
#12=PRODUCT_DEFINITION('None','None',#10,#11);
#18=(NAMED_UNIT(*)PLANE_ANGLE_UNIT()SI_UNIT($,.RADIAN.));
#19=DIMENSIONAL_EXPONENTS(0.0,0.0,0.0,0.0,0.0,0.0,0.0);
#20=PLANE_ANGLE_MEASURE_WITH_UNIT(PLANE_ANGLE_MEASURE(0.0174532925),#18);
#24=(CONVERSION_BASED_UNIT('DEGREE',#20)NAMED_UNIT(#19)PLANE_ANGLE_UNIT());
#28=(NAMED_UNIT(*)SI_UNIT($,.STERADIAN.)SOLID_ANGLE_UNIT());
#32=(LENGTH_UNIT()NAMED_UNIT(*)SI_UNIT(.MILLI.,.METRE.));
#34=UNCERTAINTY_MEASURE_WITH_UNIT(LENGTH_MEASURE(0.01),#32,'DISTANCE_ACCURACY_VALUE','');
#36=(GEOMETRIC_REPRESENTATION_CONTEXT(3)GLOBAL_UNCERTAINTY_ASSIGNED_CONTEXT((#34))GLOBAL_UNIT_ASSIGNED_CONTEXT((#24,#28,#32))REPRESENTATION_CONTEXT('None','None'));
#37=AXIS2_PLACEMENT_3D('',#38,#39,#40);
#38=CARTESIAN_POINT('',(0.0,0.0,0.0));
#39=DIRECTION('',(0.0,0.0,1.0));
#40=DIRECTION('',(1.0,0.0,0.0));
#41=SHAPE_REPRESENTATION('',(#37),#36);
#42=PRODUCT_DEFINITION_SHAPE('','',#12);
#43=SHAPE_DEFINITION_REPRESENTATION(#42,#41);
#49=(NAMED_UNIT(*)PLANE_ANGLE_UNIT()SI_UNIT($,.RADIAN.));
#50=DIMENSIONAL_EXPONENTS(0.0,0.0,0.0,0.0,0.0,0.0,0.0);
#51=PLANE_ANGLE_MEASURE_WITH_UNIT(PLANE_ANGLE_MEASURE(0.0174532925),#49);
#55=(CONVERSION_BASED_UNIT('DEGREE',#51)NAMED_UNIT(#50)PLANE_ANGLE_UNIT());
#59=(NAMED_UNIT(*)SI_UNIT($,.STERADIAN.)SOLID_ANGLE_UNIT());
#63=(LENGTH_UNIT()NAMED_UNIT(*)SI_UNIT(.MILLI.,.METRE.));
#65=UNCERTAINTY_MEASURE_WITH_UNIT(LENGTH_MEASURE(0.000001),#63,'DISTANCE_ACCURACY_VALUE','');
#67=(GEOMETRIC_REPRESENTATION_CONTEXT(3)GLOBAL_UNCERTAINTY_ASSIGNED_CONTEXT((#65))GLOBAL_UNIT_ASSIGNED_CONTEXT((#55,#59,#63))REPRESENTATION_CONTEXT('','3D'));
#68=CARTESIAN_POINT('',(-11.498007588177568,7.92406537990491,-13.700000000000054));
#69=DIRECTION('',(0.0,0.0,1.0));
#70=DIRECTION('',(1.0,0.0,0.0));
#71=AXIS2_PLACEMENT_3D('',#68,#69,#70);
#72=PLANE('',#71);
#73=CARTESIAN_POINT('',(-11.498007588177565,13.689479502064223,-13.700000000000054));
#74=VERTEX_POINT('',#73);
#75=CARTESIAN_POINT('',(-11.498007588177565,10.806772440984565,-13.700000000000054));
#76=DIRECTION('',(0.0,0.0,1.0));
#77=DIRECTION('',(0.0,1.0,0.0));
#78=AXIS2_PLACEMENT_3D('',#75,#76,#77);
#79=CIRCLE('',#78,2.882707061079664);
#80=EDGE_CURVE('',#74,#74,#79,.T.);
#81=ORIENTED_EDGE('',*,*,#80,.F.);
#82=EDGE_LOOP('',(#81));
#83=FACE_OUTER_BOUND('',#82,.T.);
#84=ADVANCED_FACE('',(#83),#72,.F.);
#85=CARTESIAN_POINT('',(-11.498007588177568,10.806772440984565,0.0));
#86=DIRECTION('',(0.0,0.0,1.0));
#87=DIRECTION('',(1.0,0.0,0.0));
#88=AXIS2_PLACEMENT_3D('',#85,#86,#87);
#89=SPHERICAL_SURFACE('',#88,14.000000000000002);
#90=ORIENTED_EDGE('',*,*,#80,.T.);
#91=EDGE_LOOP('',(#90));
#92=FACE_OUTER_BOUND('',#91,.T.);
#93=CARTESIAN_POINT('',(-22.372289173643338,18.806772440984567,-3.708099243547843));
#94=VERTEX_POINT('',#93);
#95=CARTESIAN_POINT('',(-0.623726002711795,18.806772440984567,-3.708099243547834));
#96=VERTEX_POINT('',#95);
#97=CARTESIAN_POINT('',(-11.498007588177568,18.806772440984567,0.0));
#98=DIRECTION('',(0.0,-1.0,0.0));
#99=DIRECTION('',(0.0,0.0,1.0));
#100=AXIS2_PLACEMENT_3D('',#97,#98,#99);
#101=CIRCLE('',#100,11.489125293076059);
#102=EDGE_CURVE('',#94,#96,#101,.T.);
#103=ORIENTED_EDGE('',*,*,#102,.T.);
#104=CARTESIAN_POINT('',(-0.623726002711797,2.806772440984564,-3.708099243547843));
#105=VERTEX_POINT('',#104);
#106=CARTESIAN_POINT('',(-11.498007588177568,10.806772440984565,-3.708099243547842));
#107=DIRECTION('',(0.0,0.0,1.0));
#108=DIRECTION('',(-1.0,0.0,0.0));
#109=AXIS2_PLACEMENT_3D('',#106,#107,#108);
#110=CIRCLE('',#109,13.499999999999998);
#111=EDGE_CURVE('',#105,#96,#110,.T.);
#112=ORIENTED_EDGE('',*,*,#111,.F.);
#113=CARTESIAN_POINT('',(-22.372289173643338,2.806772440984564,-3.708099243547843));
#114=VERTEX_POINT('',#113);
#115=CARTESIAN_POINT('',(-11.498007588177568,2.806772440984564,0.0));
#116=DIRECTION('',(0.0,1.0,0.0));
#117=DIRECTION('',(0.0,0.0,-1.0));
#118=AXIS2_PLACEMENT_3D('',#115,#116,#117);
#119=CIRCLE('',#118,11.489125293076059);
#120=EDGE_CURVE('',#105,#114,#119,.T.);
#121=ORIENTED_EDGE('',*,*,#120,.T.);
#122=CARTESIAN_POINT('',(-11.498007588177568,10.806772440984565,-3.708099243547842));
#123=DIRECTION('',(0.0,0.0,1.0));
#124=DIRECTION('',(-1.0,0.0,0.0));
#125=AXIS2_PLACEMENT_3D('',#122,#123,#124);
#126=CIRCLE('',#125,13.499999999999998);
#127=EDGE_CURVE('',#94,#114,#126,.T.);
#128=ORIENTED_EDGE('',*,*,#127,.F.);
#129=EDGE_LOOP('',(#103,#112,#121,#128));
#130=FACE_BOUND('',#129,.T.);
#131=ADVANCED_FACE('',(#92,#130),#89,.T.);
#132=CARTESIAN_POINT('',(-11.498007588177568,10.806772440984565,18.0));
#133=DIRECTION('',(0.0,0.0,1.0));
#134=DIRECTION('',(1.0,0.0,0.0));
#135=AXIS2_PLACEMENT_3D('',#132,#133,#134);
#136=CYLINDRICAL_SURFACE('',#135,3.0);
#137=CARTESIAN_POINT('',(-9.268958852054025,12.814592585316735,11.536630432322346));
#138=VERTEX_POINT('',#137);
#139=CARTESIAN_POINT('',(-13.727056324301108,12.814592585316735,11.536630432322347));
#140=VERTEX_POINT('',#139);
#141=CARTESIAN_POINT('',(-9.268958852054027,12.814592585316735,11.536630432322346));
#142=CARTESIAN_POINT('',(-9.384564817694679,12.942936417470758,11.558967225817756));
#143=CARTESIAN_POINT('',(-9.511396709042741,13.061448399319564,11.575385359292202));
#144=CARTESIAN_POINT('',(-9.82100863066448,13.30394449487406,11.602994006155715));
#145=CARTESIAN_POINT('',(-10.008432703836386,13.420120142493332,11.611591091781969));
#146=CARTESIAN_POINT('',(-10.419937998562929,13.616288460947924,11.622227603235011));
#147=CARTESIAN_POINT('',(-10.644145670625107,13.692358532373392,11.623788778301311));
#148=CARTESIAN_POINT('',(-10.988771783514121,13.765523960952121,11.624808224739436));
#149=CARTESIAN_POINT('',(-11.103873766966352,13.783043809552399,11.62490531201572));
#150=CARTESIAN_POINT('',(-11.286797508679518,13.800086847769006,11.624980070482135));
#151=CARTESIAN_POINT('',(-11.354084407648457,13.804075725884669,11.624988244773487));
#152=CARTESIAN_POINT('',(-11.479564481615387,13.80727898702132,11.624995282143901));
#153=CARTESIAN_POINT('',(-11.537711467926968,13.807072972950847,11.624995009169599));
#154=CARTESIAN_POINT('',(-11.665995024903033,13.802888362692302,11.624985342034357));
#155=CARTESIAN_POINT('',(-11.73607243209087,13.798135923736758,11.624974569770604));
#156=CARTESIAN_POINT('',(-11.934023491145886,13.777710986583262,11.624874124562261));
#157=CARTESIAN_POINT('',(-12.06114325774079,13.756257478164111,11.624738023571874));
#158=CARTESIAN_POINT('',(-12.534646024692488,13.644612534673012,11.622886406682152));
#159=CARTESIAN_POINT('',(-12.865029540193918,13.500950686197342,11.619334943339695));
#160=CARTESIAN_POINT('',(-13.370649013917982,13.163913702746965,11.588704273336294));
#161=CARTESIAN_POINT('',(-13.560379046936845,12.999634943566855,11.568834963500567));
#162=CARTESIAN_POINT('',(-13.727056324301103,12.81459258531674,11.536630432322347));
#163=B_SPLINE_CURVE_WITH_KNOTS('',3,(#141,#142,#143,#144,#145,#146,#147,#148,#149,#150,#151,#152,#153,#154,#155,#156,#157,#158,#159,#160,#161,#162),.UNSPECIFIED.,.F.,.U.,(4,2,2,2,2,2,2,2,2,2,4),(-0.503535963637708,-0.451317283391925,-0.385336839324538,-0.314624021291692,-0.27976655904882,-0.259574948111753,-0.242155291200486,-0.221115440159953,-0.18252581560421,-0.07533472563716,0.0),.UNSPECIFIED.);
#164=EDGE_CURVE('',#138,#140,#163,.T.);
#165=ORIENTED_EDGE('',*,*,#164,.F.);
#166=CARTESIAN_POINT('',(-9.268958852054025,8.798952296652393,11.536630432322346));
#167=VERTEX_POINT('',#166);
#168=CARTESIAN_POINT('',(-9.268958852054027,8.798952296652395,11.536630432322346));
#169=CARTESIAN_POINT('',(-9.048594690448692,9.043596946373588,11.494052795915003));
#170=CARTESIAN_POINT('',(-8.859545138906491,9.337965457516031,11.450743407756638));
#171=CARTESIAN_POINT('',(-8.574000884226756,10.02569703142704,11.38145774328753));
#172=CARTESIAN_POINT('',(-8.498007588177568,10.428244711759964,11.360567767501767));
#173=CARTESIAN_POINT('',(-8.498007588177568,10.806772440984565,11.360567767501767));
#174=CARTESIAN_POINT('',(-8.498007588177568,11.185300170209162,11.360567767501767));
#175=CARTESIAN_POINT('',(-8.574000884226754,11.587847850542088,11.38145774328753));
#176=CARTESIAN_POINT('',(-8.859545138906489,12.275579424453095,11.450743407756638));
#177=CARTESIAN_POINT('',(-9.048594690448692,12.56994793559554,11.494052795915007));
#178=CARTESIAN_POINT('',(-9.268958852054027,12.814592585316733,11.536630432322347));
#179=B_SPLINE_CURVE_WITH_KNOTS('',3,(#168,#169,#170,#171,#172,#173,#174,#175,#176,#177,#178),.UNSPECIFIED.,.F.,.U.,(4,2,3,2,4),(-0.211474048297326,-0.113558318767379,0.0,0.113558318767379,0.211474048297326),.UNSPECIFIED.);
#180=EDGE_CURVE('',#167,#138,#179,.T.);
#181=ORIENTED_EDGE('',*,*,#180,.F.);
#182=CARTESIAN_POINT('',(-13.727056324301106,8.798952296652393,11.536630432322347));
#183=VERTEX_POINT('',#182);
#184=CARTESIAN_POINT('',(-13.727056324301103,8.798952296652393,11.536630432322347));
#185=CARTESIAN_POINT('',(-13.611450358660468,8.670608464498388,11.558967225817753));
#186=CARTESIAN_POINT('',(-13.48461846731243,8.552096482649596,11.575385359292197));
#187=CARTESIAN_POINT('',(-13.175006545690684,8.309600387095092,11.602994006155711));
#188=CARTESIAN_POINT('',(-12.987582472518799,8.193424739475821,11.611591091781968));
#189=CARTESIAN_POINT('',(-12.576077177792246,7.99725642102122,11.622227603235011));
#190=CARTESIAN_POINT('',(-12.351869505730066,7.921186349595746,11.623788778301314));
#191=CARTESIAN_POINT('',(-12.007243392841021,7.848020921017007,11.624808224739438));
#192=CARTESIAN_POINT('',(-11.892141409388778,7.830501072416728,11.62490531201572));
#193=CARTESIAN_POINT('',(-11.709217667675629,7.813458034200123,11.624980070482135));
#194=CARTESIAN_POINT('',(-11.641930768706697,7.809469156084461,11.624988244773487));
#195=CARTESIAN_POINT('',(-11.516450694739781,7.806265894947808,11.624995282143901));
#196=CARTESIAN_POINT('',(-11.458303708428188,7.806471909018281,11.624995009169597));
#197=CARTESIAN_POINT('',(-11.330020151452107,7.810656519276825,11.624985342034357));
#198=CARTESIAN_POINT('',(-11.259942744264267,7.815408958232371,11.624974569770604));
#199=CARTESIAN_POINT('',(-11.061991685209254,7.835833895385864,11.624874124562261));
#200=CARTESIAN_POINT('',(-10.934871918614347,7.857287403805016,11.624738023571876));
#201=CARTESIAN_POINT('',(-10.461369151662636,7.968932347296118,11.622886406682152));
#202=CARTESIAN_POINT('',(-10.130985636161213,8.112594195771791,11.619334943339696));
#203=CARTESIAN_POINT('',(-9.625366162437182,8.449631179222145,11.588704273336299));
#204=CARTESIAN_POINT('',(-9.435636129418299,8.613909938402266,11.568834963500569));
#205=CARTESIAN_POINT('',(-9.268958852054029,8.798952296652395,11.536630432322347));
#206=B_SPLINE_CURVE_WITH_KNOTS('',3,(#184,#185,#186,#187,#188,#189,#190,#191,#192,#193,#194,#195,#196,#197,#198,#199,#200,#201,#202,#203,#204,#205),.UNSPECIFIED.,.F.,.U.,(4,2,2,2,2,2,2,2,2,2,4),(-0.503535963638059,-0.451317283392201,-0.385336839324737,-0.314624021291809,-0.279766559048896,-0.259574948111803,-0.242155291200525,-0.221115440159987,-0.182525815604235,-0.075334725637165,0.0),.UNSPECIFIED.);
#207=EDGE_CURVE('',#183,#167,#206,.T.);
#208=ORIENTED_EDGE('',*,*,#207,.F.);
#209=CARTESIAN_POINT('',(-13.727056324301108,12.814592585316735,11.536630432322347));
#210=CARTESIAN_POINT('',(-13.947420485906443,12.569947935595545,11.494052795915007));
#211=CARTESIAN_POINT('',(-14.136470037448643,12.275579424453095,11.450743407756638));
#212=CARTESIAN_POINT('',(-14.422014292128381,11.587847850542088,11.381457743287534));
#213=CARTESIAN_POINT('',(-14.498007588177568,11.185300170209162,11.360567767501767));
#214=CARTESIAN_POINT('',(-14.498007588177568,10.428244711759966,11.360567767501767));
#215=CARTESIAN_POINT('',(-14.422014292128377,10.02569703142704,11.38145774328753));
#216=CARTESIAN_POINT('',(-14.136470037448641,9.337965457516027,11.450743407756637));
#217=CARTESIAN_POINT('',(-13.947420485906441,9.043596946373585,11.494052795915007));
#218=CARTESIAN_POINT('',(-13.727056324301106,8.798952296652395,11.536630432322347));
#219=B_SPLINE_CURVE_WITH_KNOTS('',3,(#209,#210,#211,#212,#213,#214,#215,#216,#217,#218),.UNSPECIFIED.,.F.,.U.,(4,2,2,2,4),(0.696923230033686,0.794838959563632,0.908397278331011,1.021955597098391,1.119871326628338),.UNSPECIFIED.);
#220=EDGE_CURVE('',#140,#183,#219,.T.);
#221=ORIENTED_EDGE('',*,*,#220,.F.);
#222=EDGE_LOOP('',(#165,#181,#208,#221));
#223=FACE_OUTER_BOUND('',#222,.T.);
#224=CARTESIAN_POINT('',(-14.498007588177568,10.806772440984565,15.354074834545376));
#225=VERTEX_POINT('',#224);
#226=CARTESIAN_POINT('',(-11.498007588177568,10.806772440984565,15.354074834545376));
#227=DIRECTION('',(0.0,0.0,-1.0));
#228=DIRECTION('',(1.0,0.0,0.0));
#229=AXIS2_PLACEMENT_3D('',#226,#227,#228);
#230=CIRCLE('',#229,3.0);
#231=EDGE_CURVE('',#225,#225,#230,.T.);
#232=ORIENTED_EDGE('',*,*,#231,.F.);
#233=EDGE_LOOP('',(#232));
#234=FACE_BOUND('',#233,.T.);
#235=ADVANCED_FACE('',(#223,#234),#136,.F.);
#236=CARTESIAN_POINT('',(-11.498007588177568,8.798952296652393,2.220446E-015));
#237=DIRECTION('',(-5.104811E-017,1.0,-2.925150E-032));
#238=DIRECTION('',(0.0,0.0,-1.0));
#239=AXIS2_PLACEMENT_3D('',#236,#237,#238);
#240=TOROIDAL_SURFACE('',#239,7.75,4.0);
#241=CARTESIAN_POINT('',(-3.498007588177567,4.806772440984567,1.240729E-015));
#242=VERTEX_POINT('',#241);
#243=CARTESIAN_POINT('',(-11.498007588177568,4.806772440984566,2.220446E-015));
#244=DIRECTION('',(0.0,1.0,0.0));
#245=DIRECTION('',(-1.0,0.0,0.0));
#246=AXIS2_PLACEMENT_3D('',#243,#244,#245);
#247=CIRCLE('',#246,8.0);
#248=EDGE_CURVE('',#242,#242,#247,.T.);
#249=ORIENTED_EDGE('',*,*,#248,.F.);
#250=EDGE_LOOP('',(#249));
#251=FACE_OUTER_BOUND('',#250,.T.);
#252=ORIENTED_EDGE('',*,*,#207,.T.);
#253=CARTESIAN_POINT('',(-11.498007588177568,8.798952296652393,2.220446E-015));
#254=DIRECTION('',(0.0,1.0,0.0));
#255=DIRECTION('',(0.0,0.0,-1.0));
#256=AXIS2_PLACEMENT_3D('',#253,#254,#255);
#257=CIRCLE('',#256,11.75);
#258=EDGE_CURVE('',#167,#183,#257,.T.);
#259=ORIENTED_EDGE('',*,*,#258,.T.);
#260=EDGE_LOOP('',(#252,#259));
#261=FACE_BOUND('',#260,.T.);
#262=ADVANCED_FACE('',(#251,#261),#240,.F.);
#263=CARTESIAN_POINT('',(-11.498007588177568,12.814592585316735,2.220446E-015));
#264=DIRECTION('',(5.104811E-017,-1.0,2.925150E-032));
#265=DIRECTION('',(0.0,0.0,-1.0));
#266=AXIS2_PLACEMENT_3D('',#263,#264,#265);
#267=TOROIDAL_SURFACE('',#266,7.75,4.0);
#268=CARTESIAN_POINT('',(-3.498007588177567,16.806772440984563,3.200163E-015));
#269=VERTEX_POINT('',#268);
#270=CARTESIAN_POINT('',(-11.498007588177568,16.806772440984563,2.220446E-015));
#271=DIRECTION('',(0.0,-1.0,0.0));
#272=DIRECTION('',(-1.0,0.0,0.0));
#273=AXIS2_PLACEMENT_3D('',#270,#271,#272);
#274=CIRCLE('',#273,8.0);
#275=EDGE_CURVE('',#269,#269,#274,.T.);
#276=ORIENTED_EDGE('',*,*,#275,.F.);
#277=EDGE_LOOP('',(#276));
#278=FACE_OUTER_BOUND('',#277,.T.);
#279=ORIENTED_EDGE('',*,*,#164,.T.);
#280=CARTESIAN_POINT('',(-11.498007588177568,12.814592585316735,2.220446E-015));
#281=DIRECTION('',(0.0,-1.0,0.0));
#282=DIRECTION('',(0.0,0.0,-1.0));
#283=AXIS2_PLACEMENT_3D('',#280,#281,#282);
#284=CIRCLE('',#283,11.75);
#285=EDGE_CURVE('',#140,#138,#284,.T.);
#286=ORIENTED_EDGE('',*,*,#285,.T.);
#287=EDGE_LOOP('',(#279,#286));
#288=FACE_BOUND('',#287,.T.);
#289=ADVANCED_FACE('',(#278,#288),#267,.F.);
#290=CARTESIAN_POINT('',(-11.498007588177568,10.806772440984565,25.75));
#291=DIRECTION('',(0.0,0.0,1.0));
#292=DIRECTION('',(-1.0,0.0,0.0));
#293=AXIS2_PLACEMENT_3D('',#290,#291,#292);
#294=CONICAL_SURFACE('',#293,4.325,45.000000000000135);
#295=CARTESIAN_POINT('',(-7.423007588177568,10.806772440984565,25.500000000000004));
#296=VERTEX_POINT('',#295);
#297=CARTESIAN_POINT('',(-11.498007588177568,10.806772440984565,25.500000000000004));
#298=DIRECTION('',(0.0,0.0,-1.0));
#299=DIRECTION('',(-1.0,0.0,0.0));
#300=AXIS2_PLACEMENT_3D('',#297,#298,#299);
#301=CIRCLE('',#300,4.075);
#302=EDGE_CURVE('',#296,#296,#301,.T.);
#303=ORIENTED_EDGE('',*,*,#302,.T.);
#304=EDGE_LOOP('',(#303));
#305=FACE_OUTER_BOUND('',#304,.T.);
#306=CARTESIAN_POINT('',(-6.923007588177567,10.806772440984565,26.0));
#307=VERTEX_POINT('',#306);
#308=CARTESIAN_POINT('',(-11.498007588177568,10.806772440984565,26.0));
#309=DIRECTION('',(0.0,0.0,1.0));
#310=DIRECTION('',(-1.0,0.0,0.0));
#311=AXIS2_PLACEMENT_3D('',#308,#309,#310);
#312=CIRCLE('',#311,4.575000000000001);
#313=EDGE_CURVE('',#307,#307,#312,.T.);
#314=ORIENTED_EDGE('',*,*,#313,.T.);
#315=EDGE_LOOP('',(#314));
#316=FACE_BOUND('',#315,.T.);
#317=ADVANCED_FACE('',(#305,#316),#294,.F.);
#318=CARTESIAN_POINT('',(-11.498007588177568,10.806772440984565,21.0));
#319=DIRECTION('',(0.0,0.0,1.0));
#320=DIRECTION('',(1.0,0.0,0.0));
#321=AXIS2_PLACEMENT_3D('',#318,#319,#320);
#322=CYLINDRICAL_SURFACE('',#321,4.075);
#323=CARTESIAN_POINT('',(-7.423007588177568,10.806772440984565,16.0));
#324=VERTEX_POINT('',#323);
#325=CARTESIAN_POINT('',(-11.498007588177568,10.806772440984565,16.0));
#326=DIRECTION('',(0.0,0.0,1.0));
#327=DIRECTION('',(1.0,0.0,0.0));
#328=AXIS2_PLACEMENT_3D('',#325,#326,#327);
#329=CIRCLE('',#328,4.075);
#330=EDGE_CURVE('',#324,#324,#329,.T.);
#331=ORIENTED_EDGE('',*,*,#330,.F.);
#332=EDGE_LOOP('',(#331));
#333=FACE_OUTER_BOUND('',#332,.T.);
#334=ORIENTED_EDGE('',*,*,#302,.F.);
#335=EDGE_LOOP('',(#334));
#336=FACE_BOUND('',#335,.T.);
#337=ADVANCED_FACE('',(#333,#336),#322,.F.);
#338=CARTESIAN_POINT('',(-11.498007588177568,10.806772440984565,26.0));
#339=DIRECTION('',(0.0,0.0,-1.0));
#340=DIRECTION('',(-1.0,0.0,0.0));
#341=AXIS2_PLACEMENT_3D('',#338,#339,#340);
#342=PLANE('',#341);
#343=CARTESIAN_POINT('',(-5.248007588177568,10.806772440984565,26.0));
#344=VERTEX_POINT('',#343);
#345=CARTESIAN_POINT('',(-11.498007588177568,10.806772440984565,26.0));
#346=DIRECTION('',(0.0,0.0,-1.0));
#347=DIRECTION('',(-1.0,0.0,0.0));
#348=AXIS2_PLACEMENT_3D('',#345,#346,#347);
#349=CIRCLE('',#348,6.25);
#350=EDGE_CURVE('',#344,#344,#349,.T.);
#351=ORIENTED_EDGE('',*,*,#350,.F.);
#352=EDGE_LOOP('',(#351));
#353=FACE_OUTER_BOUND('',#352,.T.);
#354=ORIENTED_EDGE('',*,*,#313,.F.);
#355=EDGE_LOOP('',(#354));
#356=FACE_BOUND('',#355,.T.);
#357=ADVANCED_FACE('',(#353,#356),#342,.F.);
#358=CARTESIAN_POINT('',(-11.498007588177568,10.806772440984565,13.988834833537782));
#359=DIRECTION('',(0.0,0.0,-1.0));
#360=DIRECTION('',(-1.0,0.0,0.0));
#361=AXIS2_PLACEMENT_3D('',#358,#359,#360);
#362=TOROIDAL_SURFACE('',#361,8.750000000000002,2.5);
#363=CARTESIAN_POINT('',(-5.248007588177568,10.806772440984565,13.988834833537782));
#364=VERTEX_POINT('',#363);
#365=CARTESIAN_POINT('',(-11.498007588177568,10.806772440984565,13.988834833537782));
#366=DIRECTION('',(0.0,0.0,-1.0));
#367=DIRECTION('',(-1.0,0.0,0.0));
#368=AXIS2_PLACEMENT_3D('',#365,#366,#367);
#369=CIRCLE('',#368,6.25);
#370=EDGE_CURVE('',#364,#364,#369,.T.);
#371=ORIENTED_EDGE('',*,*,#370,.T.);
#372=EDGE_LOOP('',(#371));
#373=FACE_OUTER_BOUND('',#372,.T.);
#374=CARTESIAN_POINT('',(-4.073765163935143,10.806772440984565,11.869314404213876));
#375=VERTEX_POINT('',#374);
#376=CARTESIAN_POINT('',(-11.498007588177568,10.806772440984565,11.869314404213876));
#377=DIRECTION('',(0.0,0.0,1.0));
#378=DIRECTION('',(-1.0,0.0,0.0));
#379=AXIS2_PLACEMENT_3D('',#376,#377,#378);
#380=CIRCLE('',#379,7.424242424242426);
#381=EDGE_CURVE('',#375,#375,#380,.T.);
#382=ORIENTED_EDGE('',*,*,#381,.T.);
#383=EDGE_LOOP('',(#382));
#384=FACE_BOUND('',#383,.T.);
#385=ADVANCED_FACE('',(#373,#384),#362,.F.);
#386=CARTESIAN_POINT('',(-11.498007588177568,10.806772440984565,0.0));
#387=DIRECTION('',(0.0,0.0,1.0));
#388=DIRECTION('',(1.0,0.0,0.0));
#389=AXIS2_PLACEMENT_3D('',#386,#387,#388);
#390=SPHERICAL_SURFACE('',#389,14.000000000000002);
#391=CARTESIAN_POINT('',(-0.623726002711795,18.806772440984567,3.708099243547834));
#392=VERTEX_POINT('',#391);
#393=CARTESIAN_POINT('',(-22.372289173643338,18.806772440984567,3.708099243547843));
#394=VERTEX_POINT('',#393);
#395=CARTESIAN_POINT('',(-11.498007588177568,18.806772440984567,0.0));
#396=DIRECTION('',(0.0,-1.0,0.0));
#397=DIRECTION('',(0.0,0.0,1.0));
#398=AXIS2_PLACEMENT_3D('',#395,#396,#397);
#399=CIRCLE('',#398,11.489125293076059);
#400=EDGE_CURVE('',#392,#394,#399,.T.);
#401=ORIENTED_EDGE('',*,*,#400,.T.);
#402=CARTESIAN_POINT('',(-22.372289173643338,2.806772440984564,3.708099243547843));
#403=VERTEX_POINT('',#402);
#404=CARTESIAN_POINT('',(-11.498007588177568,10.806772440984565,3.708099243547842));
#405=DIRECTION('',(0.0,0.0,-1.0));
#406=DIRECTION('',(-1.0,0.0,0.0));
#407=AXIS2_PLACEMENT_3D('',#404,#405,#406);
#408=CIRCLE('',#407,13.499999999999998);
#409=EDGE_CURVE('',#403,#394,#408,.T.);
#410=ORIENTED_EDGE('',*,*,#409,.F.);
#411=CARTESIAN_POINT('',(-0.623726002711797,2.806772440984564,3.708099243547843));
#412=VERTEX_POINT('',#411);
#413=CARTESIAN_POINT('',(-11.498007588177568,2.806772440984564,0.0));
#414=DIRECTION('',(0.0,1.0,0.0));
#415=DIRECTION('',(0.0,0.0,-1.0));
#416=AXIS2_PLACEMENT_3D('',#413,#414,#415);
#417=CIRCLE('',#416,11.489125293076059);
#418=EDGE_CURVE('',#403,#412,#417,.T.);
#419=ORIENTED_EDGE('',*,*,#418,.T.);
#420=CARTESIAN_POINT('',(-11.498007588177568,10.806772440984565,3.708099243547842));
#421=DIRECTION('',(0.0,0.0,-1.0));
#422=DIRECTION('',(-1.0,0.0,0.0));
#423=AXIS2_PLACEMENT_3D('',#420,#421,#422);
#424=CIRCLE('',#423,13.499999999999998);
#425=EDGE_CURVE('',#392,#412,#424,.T.);
#426=ORIENTED_EDGE('',*,*,#425,.F.);
#427=EDGE_LOOP('',(#401,#410,#419,#426));
#428=FACE_OUTER_BOUND('',#427,.T.);
#429=ORIENTED_EDGE('',*,*,#381,.F.);
#430=EDGE_LOOP('',(#429));
#431=FACE_BOUND('',#430,.T.);
#432=ADVANCED_FACE('',(#428,#431),#390,.T.);
#433=CARTESIAN_POINT('',(-11.498007588177568,10.806772440984565,0.0));
#434=DIRECTION('',(0.0,0.0,1.0));
#435=DIRECTION('',(-1.0,0.0,0.0));
#436=AXIS2_PLACEMENT_3D('',#433,#434,#435);
#437=CYLINDRICAL_SURFACE('',#436,6.25);
#438=ORIENTED_EDGE('',*,*,#350,.T.);
#439=EDGE_LOOP('',(#438));
#440=FACE_OUTER_BOUND('',#439,.T.);
#441=ORIENTED_EDGE('',*,*,#370,.F.);
#442=EDGE_LOOP('',(#441));
#443=FACE_BOUND('',#442,.T.);
#444=ADVANCED_FACE('',(#440,#443),#437,.T.);
#445=CARTESIAN_POINT('',(-11.498007588177568,10.806772440984565,2.220446E-015));
#446=DIRECTION('',(-5.104811E-017,1.0,0.0));
#447=DIRECTION('',(0.0,0.0,-1.0));
#448=AXIS2_PLACEMENT_3D('',#445,#446,#447);
#449=CYLINDRICAL_SURFACE('',#448,11.75);
#450=ORIENTED_EDGE('',*,*,#220,.T.);
#451=ORIENTED_EDGE('',*,*,#258,.F.);
#452=ORIENTED_EDGE('',*,*,#180,.T.);
#453=ORIENTED_EDGE('',*,*,#285,.F.);
#454=EDGE_LOOP('',(#450,#451,#452,#453));
#455=FACE_OUTER_BOUND('',#454,.T.);
#456=ADVANCED_FACE('',(#455),#449,.F.);
#457=CARTESIAN_POINT('',(-11.498007588177565,-32.036122834560075,2.220446E-015));
#458=DIRECTION('',(-5.104811E-017,1.0,0.0));
#459=DIRECTION('',(-1.0,0.0,0.0));
#460=AXIS2_PLACEMENT_3D('',#457,#458,#459);
#461=CYLINDRICAL_SURFACE('',#460,8.0);
#462=CARTESIAN_POINT('',(-19.498007588177568,18.806772440984567,2.220446E-015));
#463=VERTEX_POINT('',#462);
#464=CARTESIAN_POINT('',(-11.498007588177568,18.806772440984567,2.220446E-015));
#465=DIRECTION('',(0.0,-1.0,0.0));
#466=DIRECTION('',(-1.0,0.0,0.0));
#467=AXIS2_PLACEMENT_3D('',#464,#465,#466);
#468=CIRCLE('',#467,8.0);
#469=EDGE_CURVE('',#463,#463,#468,.T.);
#470=ORIENTED_EDGE('',*,*,#469,.F.);
#471=EDGE_LOOP('',(#470));
#472=FACE_OUTER_BOUND('',#471,.T.);
#473=ORIENTED_EDGE('',*,*,#275,.T.);
#474=EDGE_LOOP('',(#473));
#475=FACE_BOUND('',#474,.T.);
#476=ADVANCED_FACE('',(#472,#475),#461,.F.);
#477=CARTESIAN_POINT('',(-11.498007588177565,-32.036122834560075,2.220446E-015));
#478=DIRECTION('',(-5.104811E-017,1.0,0.0));
#479=DIRECTION('',(-1.0,0.0,0.0));
#480=AXIS2_PLACEMENT_3D('',#477,#478,#479);
#481=CYLINDRICAL_SURFACE('',#480,8.0);
#482=ORIENTED_EDGE('',*,*,#248,.T.);
#483=EDGE_LOOP('',(#482));
#484=FACE_OUTER_BOUND('',#483,.T.);
#485=CARTESIAN_POINT('',(-3.498007588177567,2.806772440984565,1.240729E-015));
#486=VERTEX_POINT('',#485);
#487=CARTESIAN_POINT('',(-11.498007588177568,2.806772440984564,2.220446E-015));
#488=DIRECTION('',(0.0,1.0,0.0));
#489=DIRECTION('',(-1.0,0.0,0.0));
#490=AXIS2_PLACEMENT_3D('',#487,#488,#489);
#491=CIRCLE('',#490,8.0);
#492=EDGE_CURVE('',#486,#486,#491,.T.);
#493=ORIENTED_EDGE('',*,*,#492,.F.);
#494=EDGE_LOOP('',(#493));
#495=FACE_BOUND('',#494,.T.);
#496=ADVANCED_FACE('',(#484,#495),#481,.F.);
#497=CARTESIAN_POINT('',(-22.372289173643338,18.806772440984567,26.0));
#498=DIRECTION('',(0.0,-1.0,0.0));
#499=DIRECTION('',(0.0,0.0,-1.0));
#500=AXIS2_PLACEMENT_3D('',#497,#498,#499);
#501=PLANE('',#500);
#502=ORIENTED_EDGE('',*,*,#400,.F.);
#503=CARTESIAN_POINT('',(-0.623726002711795,18.806772440984567,-3.708099243547835));
#504=DIRECTION('',(0.0,0.0,1.0));
#505=VECTOR('',#504,7.416198487095667);
#506=LINE('',#503,#505);
#507=EDGE_CURVE('',#96,#392,#506,.T.);
#508=ORIENTED_EDGE('',*,*,#507,.F.);
#509=ORIENTED_EDGE('',*,*,#102,.F.);
#510=CARTESIAN_POINT('',(-22.372289173643338,18.806772440984567,3.708099243547842));
#511=DIRECTION('',(0.0,0.0,-1.0));
#512=VECTOR('',#511,7.416198487095684);
#513=LINE('',#510,#512);
#514=EDGE_CURVE('',#394,#94,#513,.T.);
#515=ORIENTED_EDGE('',*,*,#514,.F.);
#516=EDGE_LOOP('',(#502,#508,#509,#515));
#517=FACE_OUTER_BOUND('',#516,.T.);
#518=ORIENTED_EDGE('',*,*,#469,.T.);
#519=EDGE_LOOP('',(#518));
#520=FACE_BOUND('',#519,.T.);
#521=ADVANCED_FACE('',(#517,#520),#501,.F.);
#522=CARTESIAN_POINT('',(-0.623726002711797,2.806772440984564,26.0));
#523=DIRECTION('',(0.0,1.0,0.0));
#524=DIRECTION('',(0.0,0.0,1.0));
#525=AXIS2_PLACEMENT_3D('',#522,#523,#524);
#526=PLANE('',#525);
#527=ORIENTED_EDGE('',*,*,#418,.F.);
#528=CARTESIAN_POINT('',(-22.372289173643338,2.806772440984564,-3.708099243547842));
#529=DIRECTION('',(0.0,0.0,1.0));
#530=VECTOR('',#529,7.416198487095684);
#531=LINE('',#528,#530);
#532=EDGE_CURVE('',#114,#403,#531,.T.);
#533=ORIENTED_EDGE('',*,*,#532,.F.);
#534=ORIENTED_EDGE('',*,*,#120,.F.);
#535=CARTESIAN_POINT('',(-0.623726002711795,2.806772440984564,3.708099243547842));
#536=DIRECTION('',(0.0,0.0,-1.0));
#537=VECTOR('',#536,7.416198487095684);
#538=LINE('',#535,#537);
#539=EDGE_CURVE('',#412,#105,#538,.T.);
#540=ORIENTED_EDGE('',*,*,#539,.F.);
#541=EDGE_LOOP('',(#527,#533,#534,#540));
#542=FACE_OUTER_BOUND('',#541,.T.);
#543=ORIENTED_EDGE('',*,*,#492,.T.);
#544=EDGE_LOOP('',(#543));
#545=FACE_BOUND('',#544,.T.);
#546=ADVANCED_FACE('',(#542,#545),#526,.F.);
#547=CARTESIAN_POINT('',(-11.498007588177568,10.806772440984565,26.0));
#548=DIRECTION('',(0.0,0.0,-1.0));
#549=DIRECTION('',(-1.0,0.0,0.0));
#550=AXIS2_PLACEMENT_3D('',#547,#548,#549);
#551=CYLINDRICAL_SURFACE('',#550,13.5);
#552=ORIENTED_EDGE('',*,*,#514,.T.);
#553=ORIENTED_EDGE('',*,*,#127,.T.);
#554=ORIENTED_EDGE('',*,*,#532,.T.);
#555=ORIENTED_EDGE('',*,*,#409,.T.);
#556=EDGE_LOOP('',(#552,#553,#554,#555));
#557=FACE_OUTER_BOUND('',#556,.T.);
#558=ADVANCED_FACE('',(#557),#551,.T.);
#559=CARTESIAN_POINT('',(-11.498007588177568,10.806772440984565,14.775746488731347));
#560=DIRECTION('',(0.0,0.0,1.0));
#561=DIRECTION('',(1.0,0.0,0.0));
#562=AXIS2_PLACEMENT_3D('',#559,#560,#561);
#563=CONICAL_SURFACE('',#562,2.0375,59.000000000000007);
#564=ORIENTED_EDGE('',*,*,#231,.T.);
#565=EDGE_LOOP('',(#564));
#566=FACE_OUTER_BOUND('',#565,.T.);
#567=ORIENTED_EDGE('',*,*,#330,.T.);
#568=EDGE_LOOP('',(#567));
#569=FACE_BOUND('',#568,.T.);
#570=ADVANCED_FACE('',(#566,#569),#563,.F.);
#571=CARTESIAN_POINT('',(-11.498007588177568,10.806772440984565,26.0));
#572=DIRECTION('',(0.0,0.0,-1.0));
#573=DIRECTION('',(-1.0,0.0,0.0));
#574=AXIS2_PLACEMENT_3D('',#571,#572,#573);
#575=CYLINDRICAL_SURFACE('',#574,13.5);
#576=ORIENTED_EDGE('',*,*,#507,.T.);
#577=ORIENTED_EDGE('',*,*,#425,.T.);
#578=ORIENTED_EDGE('',*,*,#539,.T.);
#579=ORIENTED_EDGE('',*,*,#111,.T.);
#580=EDGE_LOOP('',(#576,#577,#578,#579));
#581=FACE_OUTER_BOUND('',#580,.T.);
#582=ADVANCED_FACE('',(#581),#575,.T.);
#583=CLOSED_SHELL('',(#84,#131,#235,#262,#289,#317,#337,#357,#385,#432,#444,#456,#476,#496,#521,#546,#558,#570,#582));
#584=MANIFOLD_SOLID_BREP('T\X2\011B\X0\leso1',#583);
#585=COLOUR_RGB('Kov-Ocel',0.639216005802155,0.639216005802155,0.686275005340576);
#586=FILL_AREA_STYLE_COLOUR('Kov-Ocel',#585);
#587=FILL_AREA_STYLE('Kov-Ocel',(#586));
#588=SURFACE_STYLE_FILL_AREA(#587);
#589=SURFACE_SIDE_STYLE('Kov-Ocel',(#588));
#590=SURFACE_STYLE_USAGE(.BOTH.,#589);
#591=PRESENTATION_STYLE_ASSIGNMENT((#590));
#592=STYLED_ITEM('',(#591),#584);
#593=MECHANICAL_DESIGN_GEOMETRIC_PRESENTATION_REPRESENTATION('',(#592),#36);
#594=ADVANCED_BREP_SHAPE_REPRESENTATION('ABSR',(#584),#36);
#595=SHAPE_REPRESENTATION_RELATIONSHIP('SRR','None',#594,#41);
ENDSEC;
END-ISO-10303-21;
