ISO-10303-21;
HEADER;
/****************************************************************
 * Generated by software with PDElib inside                    *
 * PDElib Version v51a, created Wed 07/06/2011                  *
 * ITI Transcendata (http://www.transcendata.com/)              *
 ****************************************************************/
FILE_DESCRIPTION((''),'2;1');
FILE_NAME('j:\\prilohy\\modely\\74722406.stp','2014-09-08T15:04:34',(''),('KNOMI spol. s r. o.'),'Autodesk Inventor 2012','Autodesk Inventor 2012','');
FILE_SCHEMA(('AUTOMOTIVE_DESIGN { 1 2 10303 214 0 1 1 1 }'));
ENDSEC;
DATA;
#5=APPLICATION_CONTEXT('automotive design');
#6=APPLICATION_PROTOCOL_DEFINITION('Draft International Standard','automotive_design',1998,#5);
#7=PRODUCT_CONTEXT('None',#5,'mechanical');
#8=PRODUCT('Oko st.p\X2\0159\X0\\S\mp.p\S\ajec\S\m D14/Tr06','Oko st.p\X2\0159\X0\\S\mp.p\S\ajec\S\m D14/Tr06','None',(#7));
#9=PRODUCT_RELATED_PRODUCT_CATEGORY('part','description',(#8));
#10=PRODUCT_DEFINITION_FORMATION('None','None',#8);
#11=PRODUCT_DEFINITION_CONTEXT('part definition',#5,'design');
#12=PRODUCT_DEFINITION('None','None',#10,#11);
#18=(NAMED_UNIT(*)PLANE_ANGLE_UNIT()SI_UNIT($,.RADIAN.));
#19=DIMENSIONAL_EXPONENTS(0.0,0.0,0.0,0.0,0.0,0.0,0.0);
#20=PLANE_ANGLE_MEASURE_WITH_UNIT(PLANE_ANGLE_MEASURE(0.0174532925),#18);
#24=(CONVERSION_BASED_UNIT('DEGREE',#20)NAMED_UNIT(#19)PLANE_ANGLE_UNIT());
#28=(NAMED_UNIT(*)SI_UNIT($,.STERADIAN.)SOLID_ANGLE_UNIT());
#32=(LENGTH_UNIT()NAMED_UNIT(*)SI_UNIT(.MILLI.,.METRE.));
#34=UNCERTAINTY_MEASURE_WITH_UNIT(LENGTH_MEASURE(0.01),#32,'DISTANCE_ACCURACY_VALUE','');
#36=(GEOMETRIC_REPRESENTATION_CONTEXT(3)GLOBAL_UNCERTAINTY_ASSIGNED_CONTEXT((#34))GLOBAL_UNIT_ASSIGNED_CONTEXT((#24,#28,#32))REPRESENTATION_CONTEXT('None','None'));
#37=AXIS2_PLACEMENT_3D('',#38,#39,#40);
#38=CARTESIAN_POINT('',(0.0,0.0,0.0));
#39=DIRECTION('',(0.0,0.0,1.0));
#40=DIRECTION('',(1.0,0.0,0.0));
#41=SHAPE_REPRESENTATION('',(#37),#36);
#42=PRODUCT_DEFINITION_SHAPE('','',#12);
#43=SHAPE_DEFINITION_REPRESENTATION(#42,#41);
#49=(NAMED_UNIT(*)PLANE_ANGLE_UNIT()SI_UNIT($,.RADIAN.));
#50=DIMENSIONAL_EXPONENTS(0.0,0.0,0.0,0.0,0.0,0.0,0.0);
#51=PLANE_ANGLE_MEASURE_WITH_UNIT(PLANE_ANGLE_MEASURE(0.0174532925),#49);
#55=(CONVERSION_BASED_UNIT('DEGREE',#51)NAMED_UNIT(#50)PLANE_ANGLE_UNIT());
#59=(NAMED_UNIT(*)SI_UNIT($,.STERADIAN.)SOLID_ANGLE_UNIT());
#63=(LENGTH_UNIT()NAMED_UNIT(*)SI_UNIT(.MILLI.,.METRE.));
#65=UNCERTAINTY_MEASURE_WITH_UNIT(LENGTH_MEASURE(0.000001),#63,'DISTANCE_ACCURACY_VALUE','');
#67=(GEOMETRIC_REPRESENTATION_CONTEXT(3)GLOBAL_UNCERTAINTY_ASSIGNED_CONTEXT((#65))GLOBAL_UNIT_ASSIGNED_CONTEXT((#55,#59,#63))REPRESENTATION_CONTEXT('','3D'));
#68=CARTESIAN_POINT('',(-13.498007588177568,7.734314141837269,-11.600000000000041));
#69=DIRECTION('',(0.0,0.0,1.0));
#70=DIRECTION('',(1.0,0.0,0.0));
#71=AXIS2_PLACEMENT_3D('',#68,#69,#70);
#72=PLANE('',#71);
#73=CARTESIAN_POINT('',(-13.498007588177568,13.879230740131856,-11.600000000000041));
#74=VERTEX_POINT('',#73);
#75=CARTESIAN_POINT('',(-13.498007588177568,10.806772440984565,-11.600000000000041));
#76=DIRECTION('',(0.0,0.0,1.0));
#77=DIRECTION('',(0.0,1.0,0.0));
#78=AXIS2_PLACEMENT_3D('',#75,#76,#77);
#79=CIRCLE('',#78,3.072458299147292);
#80=EDGE_CURVE('',#74,#74,#79,.T.);
#81=ORIENTED_EDGE('',*,*,#80,.F.);
#82=EDGE_LOOP('',(#81));
#83=FACE_OUTER_BOUND('',#82,.T.);
#84=ADVANCED_FACE('',(#83),#72,.F.);
#85=CARTESIAN_POINT('',(-13.498007588177568,10.806772440984565,0.0));
#86=DIRECTION('',(0.0,0.0,1.0));
#87=DIRECTION('',(1.0,0.0,0.0));
#88=AXIS2_PLACEMENT_3D('',#85,#86,#87);
#89=SPHERICAL_SURFACE('',#88,12.000000000000002);
#90=ORIENTED_EDGE('',*,*,#80,.T.);
#91=EDGE_LOOP('',(#90));
#92=FACE_OUTER_BOUND('',#91,.T.);
#93=CARTESIAN_POINT('',(-22.62215138362491,17.806772440984563,-3.427827300200492));
#94=VERTEX_POINT('',#93);
#95=CARTESIAN_POINT('',(-4.373863792730227,17.806772440984563,-3.427827300200502));
#96=VERTEX_POINT('',#95);
#97=CARTESIAN_POINT('',(-13.498007588177568,17.806772440984563,0.0));
#98=DIRECTION('',(0.0,-1.0,0.0));
#99=DIRECTION('',(0.0,0.0,1.0));
#100=AXIS2_PLACEMENT_3D('',#97,#98,#99);
#101=CIRCLE('',#100,9.746794344808965);
#102=EDGE_CURVE('',#94,#96,#101,.T.);
#103=ORIENTED_EDGE('',*,*,#102,.T.);
#104=CARTESIAN_POINT('',(-4.373863792730225,3.806772440984564,-3.427827300200492));
#105=VERTEX_POINT('',#104);
#106=CARTESIAN_POINT('',(-13.498007588177568,10.806772440984565,-3.42782730020053));
#107=DIRECTION('',(0.0,0.0,1.0));
#108=DIRECTION('',(-1.0,0.0,0.0));
#109=AXIS2_PLACEMENT_3D('',#106,#107,#108);
#110=CIRCLE('',#109,11.5);
#111=EDGE_CURVE('',#105,#96,#110,.T.);
#112=ORIENTED_EDGE('',*,*,#111,.F.);
#113=CARTESIAN_POINT('',(-22.622151383624907,3.806772440984564,-3.427827300200502));
#114=VERTEX_POINT('',#113);
#115=CARTESIAN_POINT('',(-13.498007588177568,3.806772440984564,0.0));
#116=DIRECTION('',(0.0,1.0,0.0));
#117=DIRECTION('',(0.0,0.0,-1.0));
#118=AXIS2_PLACEMENT_3D('',#115,#116,#117);
#119=CIRCLE('',#118,9.746794344808965);
#120=EDGE_CURVE('',#105,#114,#119,.T.);
#121=ORIENTED_EDGE('',*,*,#120,.T.);
#122=CARTESIAN_POINT('',(-13.498007588177568,10.806772440984565,-3.42782730020053));
#123=DIRECTION('',(0.0,0.0,1.0));
#124=DIRECTION('',(-1.0,0.0,0.0));
#125=AXIS2_PLACEMENT_3D('',#122,#123,#124);
#126=CIRCLE('',#125,11.5);
#127=EDGE_CURVE('',#94,#114,#126,.T.);
#128=ORIENTED_EDGE('',*,*,#127,.F.);
#129=EDGE_LOOP('',(#103,#112,#121,#128));
#130=FACE_BOUND('',#129,.T.);
#131=ADVANCED_FACE('',(#92,#130),#89,.T.);
#132=CARTESIAN_POINT('',(-13.498007588177568,10.806772440984565,15.300000000000002));
#133=DIRECTION('',(0.0,0.0,1.0));
#134=DIRECTION('',(1.0,0.0,0.0));
#135=AXIS2_PLACEMENT_3D('',#132,#133,#134);
#136=CYLINDRICAL_SURFACE('',#135,2.0);
#137=CARTESIAN_POINT('',(-11.498007588177568,10.806772440984565,9.287087810503355));
#138=VERTEX_POINT('',#137);
#139=CARTESIAN_POINT('',(-11.498007588177568,10.806772440984565,9.287087810503355));
#140=CARTESIAN_POINT('',(-11.498007588177568,11.058718416892868,9.287087810503355));
#141=CARTESIAN_POINT('',(-11.548513820913278,11.326923696143222,9.298404313445499));
#142=CARTESIAN_POINT('',(-11.752850822248393,11.819447802757333,9.338911948226249));
#143=CARTESIAN_POINT('',(-11.906642183577043,12.043834161130228,9.367478323893385));
#144=CARTESIAN_POINT('',(-12.260933629943494,12.398125607496677,9.420814061816419));
#145=CARTESIAN_POINT('',(-12.485325166145058,12.551926547028655,9.449101601780582));
#146=CARTESIAN_POINT('',(-12.977867338395017,12.756270504870649,9.488967324505692));
#147=CARTESIAN_POINT('',(-13.246079017321842,12.806772440984563,9.5));
#148=CARTESIAN_POINT('',(-13.749936159033293,12.806772440984563,9.5));
#149=CARTESIAN_POINT('',(-14.018147837960118,12.756270504870649,9.488967324505692));
#150=CARTESIAN_POINT('',(-14.510690010210077,12.551926547028655,9.449101601780582));
#151=CARTESIAN_POINT('',(-14.735081546411642,12.398125607496677,9.420814061816419));
#152=CARTESIAN_POINT('',(-15.089372992778092,12.043834161130228,9.367478323893385));
#153=CARTESIAN_POINT('',(-15.243164354106742,11.819447802757333,9.338911948226249));
#154=CARTESIAN_POINT('',(-15.447501355441858,11.326923696143222,9.298404313445499));
#155=CARTESIAN_POINT('',(-15.498007588177567,11.058718416892868,9.287087810503355));
#156=CARTESIAN_POINT('',(-15.498007588177567,10.55482646507626,9.287087810503355));
#157=CARTESIAN_POINT('',(-15.447501355441858,10.286621185825906,9.298404313445499));
#158=CARTESIAN_POINT('',(-15.243164354106742,9.794097079211797,9.338911948226249));
#159=CARTESIAN_POINT('',(-15.089372992778092,9.5697107208389,9.367478323893385));
#160=CARTESIAN_POINT('',(-14.735081546411642,9.215419274472451,9.420814061816419));
#161=CARTESIAN_POINT('',(-14.510690010210077,9.061618334940475,9.449101601780582));
#162=CARTESIAN_POINT('',(-14.018147837960118,8.857274377098483,9.488967324505692));
#163=CARTESIAN_POINT('',(-13.749936159033293,8.806772440984565,9.5));
#164=CARTESIAN_POINT('',(-13.246079017321842,8.806772440984565,9.5));
#165=CARTESIAN_POINT('',(-12.977867338395018,8.857274377098481,9.488967324505692));
#166=CARTESIAN_POINT('',(-12.485325166145063,9.061618334940471,9.449101601780582));
#167=CARTESIAN_POINT('',(-12.260933629943494,9.215419274472449,9.420814061816419));
#168=CARTESIAN_POINT('',(-11.906642183577043,9.5697107208389,9.367478323893385));
#169=CARTESIAN_POINT('',(-11.752850822248393,9.794097079211797,9.338911948226249));
#170=CARTESIAN_POINT('',(-11.548513820913275,10.286621185825908,9.298404313445499));
#171=CARTESIAN_POINT('',(-11.498007588177568,10.55482646507626,9.287087810503355));
#172=CARTESIAN_POINT('',(-11.498007588177568,10.806772440984565,9.287087810503355));
#173=B_SPLINE_CURVE_WITH_KNOTS('',3,(#139,#140,#141,#142,#143,#144,#145,#146,#147,#148,#149,#150,#151,#152,#153,#154,#155,#156,#157,#158,#159,#160,#161,#162,#163,#164,#165,#166,#167,#168,#169,#170,#171,#172),.UNSPECIFIED.,.T.,.U.,(4,2,2,2,2,2,2,2,2,2,2,2,2,2,2,2,4),(0.0,0.075583792772491,0.151167585544983,0.2267461568017,0.302324728058418,0.377903299315136,0.453481870571854,0.529065663344345,0.604649456116836,0.680233248889328,0.755817041661819,0.831395612918537,0.906974184175254,0.982552755431972,1.05813132668869,1.133715119461181,1.209298912233673),.UNSPECIFIED.);
#174=EDGE_CURVE('',#138,#138,#173,.T.);
#175=ORIENTED_EDGE('',*,*,#174,.F.);
#176=EDGE_LOOP('',(#175));
#177=FACE_OUTER_BOUND('',#176,.T.);
#178=CARTESIAN_POINT('',(-15.498007588177567,10.806772440984565,11.354074834545374));
#179=VERTEX_POINT('',#178);
#180=CARTESIAN_POINT('',(-13.498007588177568,10.806772440984565,11.354074834545374));
#181=DIRECTION('',(0.0,0.0,-1.0));
#182=DIRECTION('',(1.0,0.0,0.0));
#183=AXIS2_PLACEMENT_3D('',#180,#181,#182);
#184=CIRCLE('',#183,2.0);
#185=EDGE_CURVE('',#179,#179,#184,.T.);
#186=ORIENTED_EDGE('',*,*,#185,.F.);
#187=EDGE_LOOP('',(#186));
#188=FACE_BOUND('',#187,.T.);
#189=ADVANCED_FACE('',(#177,#188),#136,.F.);
#190=CARTESIAN_POINT('',(-13.498007588177568,10.806772440984565,21.750000000000004));
#191=DIRECTION('',(0.0,0.0,1.0));
#192=DIRECTION('',(-1.0,0.0,0.0));
#193=AXIS2_PLACEMENT_3D('',#190,#191,#192);
#194=CONICAL_SURFACE('',#193,3.325000000000001,45.000000000000135);
#195=CARTESIAN_POINT('',(-10.423007588177565,10.806772440984565,21.500000000000004));
#196=VERTEX_POINT('',#195);
#197=CARTESIAN_POINT('',(-13.498007588177568,10.806772440984565,21.500000000000004));
#198=DIRECTION('',(0.0,0.0,-1.0));
#199=DIRECTION('',(-1.0,0.0,0.0));
#200=AXIS2_PLACEMENT_3D('',#197,#198,#199);
#201=CIRCLE('',#200,3.075000000000001);
#202=EDGE_CURVE('',#196,#196,#201,.T.);
#203=ORIENTED_EDGE('',*,*,#202,.T.);
#204=EDGE_LOOP('',(#203));
#205=FACE_OUTER_BOUND('',#204,.T.);
#206=CARTESIAN_POINT('',(-9.923007588177566,10.806772440984565,22.0));
#207=VERTEX_POINT('',#206);
#208=CARTESIAN_POINT('',(-13.498007588177568,10.806772440984565,22.0));
#209=DIRECTION('',(0.0,0.0,1.0));
#210=DIRECTION('',(-1.0,0.0,0.0));
#211=AXIS2_PLACEMENT_3D('',#208,#209,#210);
#212=CIRCLE('',#211,3.575000000000001);
#213=EDGE_CURVE('',#207,#207,#212,.T.);
#214=ORIENTED_EDGE('',*,*,#213,.T.);
#215=EDGE_LOOP('',(#214));
#216=FACE_BOUND('',#215,.T.);
#217=ADVANCED_FACE('',(#205,#216),#194,.F.);
#218=CARTESIAN_POINT('',(-13.498007588177568,10.806772440984565,17.0));
#219=DIRECTION('',(0.0,0.0,1.0));
#220=DIRECTION('',(1.0,0.0,0.0));
#221=AXIS2_PLACEMENT_3D('',#218,#219,#220);
#222=CYLINDRICAL_SURFACE('',#221,3.075000000000001);
#223=CARTESIAN_POINT('',(-10.423007588177565,10.806772440984565,12.000000000000002));
#224=VERTEX_POINT('',#223);
#225=CARTESIAN_POINT('',(-13.498007588177568,10.806772440984565,12.000000000000002));
#226=DIRECTION('',(0.0,0.0,1.0));
#227=DIRECTION('',(1.0,0.0,0.0));
#228=AXIS2_PLACEMENT_3D('',#225,#226,#227);
#229=CIRCLE('',#228,3.075000000000001);
#230=EDGE_CURVE('',#224,#224,#229,.T.);
#231=ORIENTED_EDGE('',*,*,#230,.F.);
#232=EDGE_LOOP('',(#231));
#233=FACE_OUTER_BOUND('',#232,.T.);
#234=ORIENTED_EDGE('',*,*,#202,.F.);
#235=EDGE_LOOP('',(#234));
#236=FACE_BOUND('',#235,.T.);
#237=ADVANCED_FACE('',(#233,#236),#222,.F.);
#238=CARTESIAN_POINT('',(-13.498007588177568,10.806772440984565,22.0));
#239=DIRECTION('',(0.0,0.0,-1.0));
#240=DIRECTION('',(-1.0,0.0,0.0));
#241=AXIS2_PLACEMENT_3D('',#238,#239,#240);
#242=PLANE('',#241);
#243=CARTESIAN_POINT('',(-8.248007588177567,10.806772440984565,22.0));
#244=VERTEX_POINT('',#243);
#245=CARTESIAN_POINT('',(-13.498007588177568,10.806772440984565,22.0));
#246=DIRECTION('',(0.0,0.0,-1.0));
#247=DIRECTION('',(-1.0,0.0,0.0));
#248=AXIS2_PLACEMENT_3D('',#245,#246,#247);
#249=CIRCLE('',#248,5.25);
#250=EDGE_CURVE('',#244,#244,#249,.T.);
#251=ORIENTED_EDGE('',*,*,#250,.F.);
#252=EDGE_LOOP('',(#251));
#253=FACE_OUTER_BOUND('',#252,.T.);
#254=ORIENTED_EDGE('',*,*,#213,.F.);
#255=EDGE_LOOP('',(#254));
#256=FACE_BOUND('',#255,.T.);
#257=ADVANCED_FACE('',(#253,#256),#242,.F.);
#258=CARTESIAN_POINT('',(-13.498007588177568,10.806772440984565,12.255100978776145));
#259=DIRECTION('',(0.0,0.0,-1.0));
#260=DIRECTION('',(-1.0,0.0,0.0));
#261=AXIS2_PLACEMENT_3D('',#258,#259,#260);
#262=TOROIDAL_SURFACE('',#261,7.749999999999999,2.5);
#263=CARTESIAN_POINT('',(-8.248007588177567,10.806772440984565,12.255100978776145));
#264=VERTEX_POINT('',#263);
#265=CARTESIAN_POINT('',(-13.498007588177568,10.806772440984565,12.255100978776145));
#266=DIRECTION('',(0.0,0.0,-1.0));
#267=DIRECTION('',(-1.0,0.0,0.0));
#268=AXIS2_PLACEMENT_3D('',#265,#266,#267);
#269=CIRCLE('',#268,5.25);
#270=EDGE_CURVE('',#264,#264,#269,.T.);
#271=ORIENTED_EDGE('',*,*,#270,.T.);
#272=EDGE_LOOP('',(#271));
#273=FACE_OUTER_BOUND('',#272,.T.);
#274=CARTESIAN_POINT('',(-7.084214484729293,10.806772440984565,10.142152534159568));
#275=VERTEX_POINT('',#274);
#276=CARTESIAN_POINT('',(-13.498007588177568,10.806772440984565,10.142152534159568));
#277=DIRECTION('',(0.0,0.0,1.0));
#278=DIRECTION('',(-1.0,0.0,0.0));
#279=AXIS2_PLACEMENT_3D('',#276,#277,#278);
#280=CIRCLE('',#279,6.413793103448276);
#281=EDGE_CURVE('',#275,#275,#280,.T.);
#282=ORIENTED_EDGE('',*,*,#281,.T.);
#283=EDGE_LOOP('',(#282));
#284=FACE_BOUND('',#283,.T.);
#285=ADVANCED_FACE('',(#273,#284),#262,.F.);
#286=CARTESIAN_POINT('',(-13.498007588177568,10.806772440984565,0.0));
#287=DIRECTION('',(0.0,0.0,1.0));
#288=DIRECTION('',(1.0,0.0,0.0));
#289=AXIS2_PLACEMENT_3D('',#286,#287,#288);
#290=SPHERICAL_SURFACE('',#289,12.000000000000002);
#291=CARTESIAN_POINT('',(-4.373863792730227,17.806772440984563,3.427827300200502));
#292=VERTEX_POINT('',#291);
#293=CARTESIAN_POINT('',(-22.62215138362491,17.806772440984563,3.427827300200492));
#294=VERTEX_POINT('',#293);
#295=CARTESIAN_POINT('',(-13.498007588177568,17.806772440984563,0.0));
#296=DIRECTION('',(0.0,-1.0,0.0));
#297=DIRECTION('',(0.0,0.0,1.0));
#298=AXIS2_PLACEMENT_3D('',#295,#296,#297);
#299=CIRCLE('',#298,9.746794344808965);
#300=EDGE_CURVE('',#292,#294,#299,.T.);
#301=ORIENTED_EDGE('',*,*,#300,.T.);
#302=CARTESIAN_POINT('',(-22.622151383624907,3.806772440984564,3.427827300200502));
#303=VERTEX_POINT('',#302);
#304=CARTESIAN_POINT('',(-13.498007588177568,10.806772440984565,3.42782730020053));
#305=DIRECTION('',(0.0,0.0,-1.0));
#306=DIRECTION('',(-1.0,0.0,0.0));
#307=AXIS2_PLACEMENT_3D('',#304,#305,#306);
#308=CIRCLE('',#307,11.5);
#309=EDGE_CURVE('',#303,#294,#308,.T.);
#310=ORIENTED_EDGE('',*,*,#309,.F.);
#311=CARTESIAN_POINT('',(-4.373863792730225,3.806772440984564,3.427827300200492));
#312=VERTEX_POINT('',#311);
#313=CARTESIAN_POINT('',(-13.498007588177568,3.806772440984564,0.0));
#314=DIRECTION('',(0.0,1.0,0.0));
#315=DIRECTION('',(0.0,0.0,-1.0));
#316=AXIS2_PLACEMENT_3D('',#313,#314,#315);
#317=CIRCLE('',#316,9.746794344808965);
#318=EDGE_CURVE('',#303,#312,#317,.T.);
#319=ORIENTED_EDGE('',*,*,#318,.T.);
#320=CARTESIAN_POINT('',(-13.498007588177568,10.806772440984565,3.42782730020053));
#321=DIRECTION('',(0.0,0.0,-1.0));
#322=DIRECTION('',(-1.0,0.0,0.0));
#323=AXIS2_PLACEMENT_3D('',#320,#321,#322);
#324=CIRCLE('',#323,11.5);
#325=EDGE_CURVE('',#292,#312,#324,.T.);
#326=ORIENTED_EDGE('',*,*,#325,.F.);
#327=EDGE_LOOP('',(#301,#310,#319,#326));
#328=FACE_OUTER_BOUND('',#327,.T.);
#329=ORIENTED_EDGE('',*,*,#281,.F.);
#330=EDGE_LOOP('',(#329));
#331=FACE_BOUND('',#330,.T.);
#332=ADVANCED_FACE('',(#328,#331),#290,.T.);
#333=CARTESIAN_POINT('',(-13.498007588177568,10.806772440984565,0.0));
#334=DIRECTION('',(0.0,0.0,1.0));
#335=DIRECTION('',(-1.0,0.0,0.0));
#336=AXIS2_PLACEMENT_3D('',#333,#334,#335);
#337=CYLINDRICAL_SURFACE('',#336,5.25);
#338=ORIENTED_EDGE('',*,*,#250,.T.);
#339=EDGE_LOOP('',(#338));
#340=FACE_OUTER_BOUND('',#339,.T.);
#341=ORIENTED_EDGE('',*,*,#270,.F.);
#342=EDGE_LOOP('',(#341));
#343=FACE_BOUND('',#342,.T.);
#344=ADVANCED_FACE('',(#340,#343),#337,.T.);
#345=CARTESIAN_POINT('',(-13.498007588177568,13.306772440984563,-1.110223E-015));
#346=DIRECTION('',(0.0,1.0,0.0));
#347=DIRECTION('',(0.0,0.0,1.0));
#348=AXIS2_PLACEMENT_3D('',#345,#346,#347);
#349=TOROIDAL_SURFACE('',#348,7.000000000000001,2.5);
#350=CARTESIAN_POINT('',(-13.498007588177565,15.806772440984563,-7.000000000000002));
#351=VERTEX_POINT('',#350);
#352=CARTESIAN_POINT('',(-13.498007588177568,15.806772440984563,-1.110223E-015));
#353=DIRECTION('',(0.0,-1.0,0.0));
#354=DIRECTION('',(-1.0,0.0,0.0));
#355=AXIS2_PLACEMENT_3D('',#352,#353,#354);
#356=CIRCLE('',#355,7.000000000000001);
#357=EDGE_CURVE('',#351,#351,#356,.T.);
#358=ORIENTED_EDGE('',*,*,#357,.F.);
#359=EDGE_LOOP('',(#358));
#360=FACE_OUTER_BOUND('',#359,.T.);
#361=CARTESIAN_POINT('',(-13.498007588177561,13.306772440984563,-9.500000000000002));
#362=VERTEX_POINT('',#361);
#363=CARTESIAN_POINT('',(-13.498007588177568,13.306772440984563,-1.110223E-015));
#364=DIRECTION('',(0.0,-1.0,0.0));
#365=DIRECTION('',(0.0,0.0,1.0));
#366=AXIS2_PLACEMENT_3D('',#363,#364,#365);
#367=CIRCLE('',#366,9.5);
#368=EDGE_CURVE('',#362,#362,#367,.T.);
#369=ORIENTED_EDGE('',*,*,#368,.T.);
#370=EDGE_LOOP('',(#369));
#371=FACE_BOUND('',#370,.T.);
#372=ADVANCED_FACE('',(#360,#371),#349,.F.);
#373=CARTESIAN_POINT('',(-13.498007588177568,10.806772440984567,-1.110223E-015));
#374=DIRECTION('',(0.0,1.0,0.0));
#375=DIRECTION('',(0.0,0.0,-1.0));
#376=AXIS2_PLACEMENT_3D('',#373,#374,#375);
#377=CYLINDRICAL_SURFACE('',#376,9.5);
#378=CARTESIAN_POINT('',(-13.498007588177565,8.306772440984569,-9.500000000000002));
#379=VERTEX_POINT('',#378);
#380=CARTESIAN_POINT('',(-13.498007588177568,8.306772440984569,-1.110223E-015));
#381=DIRECTION('',(0.0,1.0,0.0));
#382=DIRECTION('',(0.0,0.0,1.0));
#383=AXIS2_PLACEMENT_3D('',#380,#381,#382);
#384=CIRCLE('',#383,9.5);
#385=EDGE_CURVE('',#379,#379,#384,.T.);
#386=ORIENTED_EDGE('',*,*,#385,.F.);
#387=EDGE_LOOP('',(#386));
#388=FACE_OUTER_BOUND('',#387,.T.);
#389=ORIENTED_EDGE('',*,*,#174,.T.);
#390=EDGE_LOOP('',(#389));
#391=FACE_BOUND('',#390,.T.);
#392=ORIENTED_EDGE('',*,*,#368,.F.);
#393=EDGE_LOOP('',(#392));
#394=FACE_BOUND('',#393,.T.);
#395=ADVANCED_FACE('',(#388,#391,#394),#377,.F.);
#396=CARTESIAN_POINT('',(-13.498007588177568,8.306772440984569,-1.110223E-015));
#397=DIRECTION('',(0.0,1.0,0.0));
#398=DIRECTION('',(0.0,0.0,1.0));
#399=AXIS2_PLACEMENT_3D('',#396,#397,#398);
#400=TOROIDAL_SURFACE('',#399,7.000000000000001,2.5);
#401=ORIENTED_EDGE('',*,*,#385,.T.);
#402=EDGE_LOOP('',(#401));
#403=FACE_OUTER_BOUND('',#402,.T.);
#404=CARTESIAN_POINT('',(-13.498007588177565,5.806772440984569,-7.000000000000002));
#405=VERTEX_POINT('',#404);
#406=CARTESIAN_POINT('',(-13.498007588177568,5.806772440984571,-1.110223E-015));
#407=DIRECTION('',(0.0,1.0,0.0));
#408=DIRECTION('',(-1.0,0.0,0.0));
#409=AXIS2_PLACEMENT_3D('',#406,#407,#408);
#410=CIRCLE('',#409,7.000000000000001);
#411=EDGE_CURVE('',#405,#405,#410,.T.);
#412=ORIENTED_EDGE('',*,*,#411,.F.);
#413=EDGE_LOOP('',(#412));
#414=FACE_BOUND('',#413,.T.);
#415=ADVANCED_FACE('',(#403,#414),#400,.F.);
#416=CARTESIAN_POINT('',(-13.498007588177568,-25.56372444341832,-1.110223E-015));
#417=DIRECTION('',(0.0,1.0,0.0));
#418=DIRECTION('',(-1.0,0.0,0.0));
#419=AXIS2_PLACEMENT_3D('',#416,#417,#418);
#420=CYLINDRICAL_SURFACE('',#419,7.000000000000001);
#421=CARTESIAN_POINT('',(-20.498007588177568,17.806772440984563,-1.110223E-015));
#422=VERTEX_POINT('',#421);
#423=CARTESIAN_POINT('',(-13.498007588177568,17.806772440984563,-1.110223E-015));
#424=DIRECTION('',(0.0,-1.0,0.0));
#425=DIRECTION('',(-1.0,0.0,0.0));
#426=AXIS2_PLACEMENT_3D('',#423,#424,#425);
#427=CIRCLE('',#426,7.000000000000001);
#428=EDGE_CURVE('',#422,#422,#427,.T.);
#429=ORIENTED_EDGE('',*,*,#428,.F.);
#430=EDGE_LOOP('',(#429));
#431=FACE_OUTER_BOUND('',#430,.T.);
#432=ORIENTED_EDGE('',*,*,#357,.T.);
#433=EDGE_LOOP('',(#432));
#434=FACE_BOUND('',#433,.T.);
#435=ADVANCED_FACE('',(#431,#434),#420,.F.);
#436=CARTESIAN_POINT('',(-13.498007588177568,-25.56372444341832,-1.110223E-015));
#437=DIRECTION('',(0.0,1.0,0.0));
#438=DIRECTION('',(-1.0,0.0,0.0));
#439=AXIS2_PLACEMENT_3D('',#436,#437,#438);
#440=CYLINDRICAL_SURFACE('',#439,7.000000000000001);
#441=ORIENTED_EDGE('',*,*,#411,.T.);
#442=EDGE_LOOP('',(#441));
#443=FACE_OUTER_BOUND('',#442,.T.);
#444=CARTESIAN_POINT('',(-6.498007588177567,3.806772440984565,-1.967476E-015));
#445=VERTEX_POINT('',#444);
#446=CARTESIAN_POINT('',(-13.498007588177568,3.806772440984565,-1.110223E-015));
#447=DIRECTION('',(0.0,1.0,0.0));
#448=DIRECTION('',(-1.0,0.0,0.0));
#449=AXIS2_PLACEMENT_3D('',#446,#447,#448);
#450=CIRCLE('',#449,7.000000000000001);
#451=EDGE_CURVE('',#445,#445,#450,.T.);
#452=ORIENTED_EDGE('',*,*,#451,.F.);
#453=EDGE_LOOP('',(#452));
#454=FACE_BOUND('',#453,.T.);
#455=ADVANCED_FACE('',(#443,#454),#440,.F.);
#456=CARTESIAN_POINT('',(-22.62215138362491,17.806772440984563,22.0));
#457=DIRECTION('',(0.0,-1.0,0.0));
#458=DIRECTION('',(0.0,0.0,-1.0));
#459=AXIS2_PLACEMENT_3D('',#456,#457,#458);
#460=PLANE('',#459);
#461=ORIENTED_EDGE('',*,*,#300,.F.);
#462=CARTESIAN_POINT('',(-4.373863792730237,17.806772440984563,-3.427827300200505));
#463=DIRECTION('',(0.0,0.0,1.0));
#464=VECTOR('',#463,6.855654600401003);
#465=LINE('',#462,#464);
#466=EDGE_CURVE('',#96,#292,#465,.T.);
#467=ORIENTED_EDGE('',*,*,#466,.F.);
#468=ORIENTED_EDGE('',*,*,#102,.F.);
#469=CARTESIAN_POINT('',(-22.622151383624896,17.806772440984563,3.427827300200491));
#470=DIRECTION('',(0.0,0.0,-1.0));
#471=VECTOR('',#470,6.855654600400989);
#472=LINE('',#469,#471);
#473=EDGE_CURVE('',#294,#94,#472,.T.);
#474=ORIENTED_EDGE('',*,*,#473,.F.);
#475=EDGE_LOOP('',(#461,#467,#468,#474));
#476=FACE_OUTER_BOUND('',#475,.T.);
#477=ORIENTED_EDGE('',*,*,#428,.T.);
#478=EDGE_LOOP('',(#477));
#479=FACE_BOUND('',#478,.T.);
#480=ADVANCED_FACE('',(#476,#479),#460,.F.);
#481=CARTESIAN_POINT('',(-4.373863792730225,3.806772440984564,22.0));
#482=DIRECTION('',(0.0,1.0,0.0));
#483=DIRECTION('',(0.0,0.0,1.0));
#484=AXIS2_PLACEMENT_3D('',#481,#482,#483);
#485=PLANE('',#484);
#486=ORIENTED_EDGE('',*,*,#318,.F.);
#487=CARTESIAN_POINT('',(-22.622151383624896,3.806772440984564,-3.427827300200505));
#488=DIRECTION('',(0.0,0.0,1.0));
#489=VECTOR('',#488,6.855654600401003);
#490=LINE('',#487,#489);
#491=EDGE_CURVE('',#114,#303,#490,.T.);
#492=ORIENTED_EDGE('',*,*,#491,.F.);
#493=ORIENTED_EDGE('',*,*,#120,.F.);
#494=CARTESIAN_POINT('',(-4.373863792730237,3.806772440984564,3.427827300200491));
#495=DIRECTION('',(0.0,0.0,-1.0));
#496=VECTOR('',#495,6.855654600400989);
#497=LINE('',#494,#496);
#498=EDGE_CURVE('',#312,#105,#497,.T.);
#499=ORIENTED_EDGE('',*,*,#498,.F.);
#500=EDGE_LOOP('',(#486,#492,#493,#499));
#501=FACE_OUTER_BOUND('',#500,.T.);
#502=ORIENTED_EDGE('',*,*,#451,.T.);
#503=EDGE_LOOP('',(#502));
#504=FACE_BOUND('',#503,.T.);
#505=ADVANCED_FACE('',(#501,#504),#485,.F.);
#506=CARTESIAN_POINT('',(-13.498007588177568,10.806772440984565,22.0));
#507=DIRECTION('',(0.0,0.0,-1.0));
#508=DIRECTION('',(-1.0,0.0,0.0));
#509=AXIS2_PLACEMENT_3D('',#506,#507,#508);
#510=CYLINDRICAL_SURFACE('',#509,11.500000000000002);
#511=ORIENTED_EDGE('',*,*,#473,.T.);
#512=ORIENTED_EDGE('',*,*,#127,.T.);
#513=ORIENTED_EDGE('',*,*,#491,.T.);
#514=ORIENTED_EDGE('',*,*,#309,.T.);
#515=EDGE_LOOP('',(#511,#512,#513,#514));
#516=FACE_OUTER_BOUND('',#515,.T.);
#517=ADVANCED_FACE('',(#516),#510,.T.);
#518=CARTESIAN_POINT('',(-13.498007588177568,10.806772440984565,11.076176798245127));
#519=DIRECTION('',(0.0,0.0,1.0));
#520=DIRECTION('',(1.0,0.0,0.0));
#521=AXIS2_PLACEMENT_3D('',#518,#519,#520);
#522=CONICAL_SURFACE('',#521,1.5375,59.000000000000007);
#523=ORIENTED_EDGE('',*,*,#185,.T.);
#524=EDGE_LOOP('',(#523));
#525=FACE_OUTER_BOUND('',#524,.T.);
#526=ORIENTED_EDGE('',*,*,#230,.T.);
#527=EDGE_LOOP('',(#526));
#528=FACE_BOUND('',#527,.T.);
#529=ADVANCED_FACE('',(#525,#528),#522,.F.);
#530=CARTESIAN_POINT('',(-13.498007588177568,10.806772440984565,22.0));
#531=DIRECTION('',(0.0,0.0,-1.0));
#532=DIRECTION('',(-1.0,0.0,0.0));
#533=AXIS2_PLACEMENT_3D('',#530,#531,#532);
#534=CYLINDRICAL_SURFACE('',#533,11.500000000000002);
#535=ORIENTED_EDGE('',*,*,#466,.T.);
#536=ORIENTED_EDGE('',*,*,#325,.T.);
#537=ORIENTED_EDGE('',*,*,#498,.T.);
#538=ORIENTED_EDGE('',*,*,#111,.T.);
#539=EDGE_LOOP('',(#535,#536,#537,#538));
#540=FACE_OUTER_BOUND('',#539,.T.);
#541=ADVANCED_FACE('',(#540),#534,.T.);
#542=CLOSED_SHELL('',(#84,#131,#189,#217,#237,#257,#285,#332,#344,#372,#395,#415,#435,#455,#480,#505,#517,#529,#541));
#543=MANIFOLD_SOLID_BREP('T\X2\011B\X0\leso1',#542);
#544=COLOUR_RGB('Kov-Ocel',0.639216005802155,0.639216005802155,0.686275005340576);
#545=FILL_AREA_STYLE_COLOUR('Kov-Ocel',#544);
#546=FILL_AREA_STYLE('Kov-Ocel',(#545));
#547=SURFACE_STYLE_FILL_AREA(#546);
#548=SURFACE_SIDE_STYLE('Kov-Ocel',(#547));
#549=SURFACE_STYLE_USAGE(.BOTH.,#548);
#550=PRESENTATION_STYLE_ASSIGNMENT((#549));
#551=STYLED_ITEM('',(#550),#543);
#552=MECHANICAL_DESIGN_GEOMETRIC_PRESENTATION_REPRESENTATION('',(#551),#36);
#553=ADVANCED_BREP_SHAPE_REPRESENTATION('ABSR',(#543),#36);
#554=SHAPE_REPRESENTATION_RELATIONSHIP('SRR','None',#553,#41);
ENDSEC;
END-ISO-10303-21;
