ISO-10303-21;
HEADER;
/****************************************************************
 * Generated by software with PDElib inside                    *
 * PDElib Version v51a, created Wed 07/06/2011                  *
 * ITI Transcendata (http://www.transcendata.com/)              *
 ****************************************************************/
FILE_DESCRIPTION((''),'2;1');
FILE_NAME('j:\\prilohy\\modely\\74721404.stp','2014-09-08T15:04:22',(''),('KNOMI spol. s r. o.'),'Autodesk Inventor 2012','Autodesk Inventor 2012','');
FILE_SCHEMA(('AUTOMOTIVE_DESIGN { 1 2 10303 214 0 1 1 1 }'));
ENDSEC;
DATA;
#5=APPLICATION_CONTEXT('automotive design');
#6=APPLICATION_PROTOCOL_DEFINITION('Draft International Standard','automotive_design',1998,#5);
#7=PRODUCT_CONTEXT('None',#5,'mechanical');
#8=PRODUCT('Oko st.p\X2\0159\X0\\S\mp.p\S\ajec\S\m D8/Tr04,Js-2,5','Oko st.p\X2\0159\X0\\S\mp.p\S\ajec\S\m D8/Tr04,Js-2,5','None',(#7));
#9=PRODUCT_RELATED_PRODUCT_CATEGORY('part','description',(#8));
#10=PRODUCT_DEFINITION_FORMATION('None','None',#8);
#11=PRODUCT_DEFINITION_CONTEXT('part definition',#5,'design');
#12=PRODUCT_DEFINITION('None','None',#10,#11);
#18=(NAMED_UNIT(*)PLANE_ANGLE_UNIT()SI_UNIT($,.RADIAN.));
#19=DIMENSIONAL_EXPONENTS(0.0,0.0,0.0,0.0,0.0,0.0,0.0);
#20=PLANE_ANGLE_MEASURE_WITH_UNIT(PLANE_ANGLE_MEASURE(0.0174532925),#18);
#24=(CONVERSION_BASED_UNIT('DEGREE',#20)NAMED_UNIT(#19)PLANE_ANGLE_UNIT());
#28=(NAMED_UNIT(*)SI_UNIT($,.STERADIAN.)SOLID_ANGLE_UNIT());
#32=(LENGTH_UNIT()NAMED_UNIT(*)SI_UNIT(.MILLI.,.METRE.));
#34=UNCERTAINTY_MEASURE_WITH_UNIT(LENGTH_MEASURE(0.01),#32,'DISTANCE_ACCURACY_VALUE','');
#36=(GEOMETRIC_REPRESENTATION_CONTEXT(3)GLOBAL_UNCERTAINTY_ASSIGNED_CONTEXT((#34))GLOBAL_UNIT_ASSIGNED_CONTEXT((#24,#28,#32))REPRESENTATION_CONTEXT('None','None'));
#37=AXIS2_PLACEMENT_3D('',#38,#39,#40);
#38=CARTESIAN_POINT('',(0.0,0.0,0.0));
#39=DIRECTION('',(0.0,0.0,1.0));
#40=DIRECTION('',(1.0,0.0,0.0));
#41=SHAPE_REPRESENTATION('',(#37),#36);
#42=PRODUCT_DEFINITION_SHAPE('','',#12);
#43=SHAPE_DEFINITION_REPRESENTATION(#42,#41);
#49=(NAMED_UNIT(*)PLANE_ANGLE_UNIT()SI_UNIT($,.RADIAN.));
#50=DIMENSIONAL_EXPONENTS(0.0,0.0,0.0,0.0,0.0,0.0,0.0);
#51=PLANE_ANGLE_MEASURE_WITH_UNIT(PLANE_ANGLE_MEASURE(0.0174532925),#49);
#55=(CONVERSION_BASED_UNIT('DEGREE',#51)NAMED_UNIT(#50)PLANE_ANGLE_UNIT());
#59=(NAMED_UNIT(*)SI_UNIT($,.STERADIAN.)SOLID_ANGLE_UNIT());
#63=(LENGTH_UNIT()NAMED_UNIT(*)SI_UNIT(.MILLI.,.METRE.));
#65=UNCERTAINTY_MEASURE_WITH_UNIT(LENGTH_MEASURE(0.000001),#63,'DISTANCE_ACCURACY_VALUE','');
#67=(GEOMETRIC_REPRESENTATION_CONTEXT(3)GLOBAL_UNCERTAINTY_ASSIGNED_CONTEXT((#65))GLOBAL_UNIT_ASSIGNED_CONTEXT((#55,#59,#63))REPRESENTATION_CONTEXT('','3D'));
#68=CARTESIAN_POINT('',(-18.498007588177568,10.806772440984565,10.0));
#69=DIRECTION('',(0.0,0.0,1.0));
#70=DIRECTION('',(1.0,0.0,0.0));
#71=AXIS2_PLACEMENT_3D('',#68,#69,#70);
#72=CYLINDRICAL_SURFACE('',#71,1.5);
#73=CARTESIAN_POINT('',(-17.055855326259632,11.219321654345809,5.203863646699919));
#74=VERTEX_POINT('',#73);
#75=CARTESIAN_POINT('',(-19.940159850095501,11.219321654345809,5.203863646699919));
#76=VERTEX_POINT('',#75);
#77=CARTESIAN_POINT('',(-17.055855326259632,11.219321654345809,5.203863646699919));
#78=CARTESIAN_POINT('',(-17.080841759424839,11.306666969618323,5.210788163473012));
#79=CARTESIAN_POINT('',(-17.113737222587602,11.391656221457861,5.212289227382771));
#80=CARTESIAN_POINT('',(-17.197261514476828,11.5600668704197,5.205879817254112));
#81=CARTESIAN_POINT('',(-17.248448393676444,11.642150363242088,5.19738736646198));
#82=CARTESIAN_POINT('',(-17.414923995793057,11.859625541501966,5.162349029334292));
#83=CARTESIAN_POINT('',(-17.546215273092795,11.97924701990441,5.126657139409153));
#84=CARTESIAN_POINT('',(-17.824868396935464,12.156199822640021,5.057657987519564));
#85=CARTESIAN_POINT('',(-17.968683514928287,12.219014759957496,5.024739133337587));
#86=CARTESIAN_POINT('',(-18.192193716660288,12.277133865637868,4.991821388194881));
#87=CARTESIAN_POINT('',(-18.265344364352661,12.290500170356113,4.983688858575481));
#88=CARTESIAN_POINT('',(-18.391356882055874,12.303880238164027,4.975469757092534));
#89=CARTESIAN_POINT('',(-18.443310838714822,12.306681212723499,4.973705507981715));
#90=CARTESIAN_POINT('',(-18.547278299734437,12.306858777499549,4.973594536480181));
#91=CARTESIAN_POINT('',(-18.598944817922565,12.304266131420947,4.975228332750426));
#92=CARTESIAN_POINT('',(-18.72328569795204,12.29156767911444,4.983038718390283));
#93=CARTESIAN_POINT('',(-18.795103084577359,12.278850217275332,4.990793407104482));
#94=CARTESIAN_POINT('',(-19.017626843297386,12.222612332356512,5.022810350649306));
#95=CARTESIAN_POINT('',(-19.161807051667999,12.160804919309134,5.055480419097631));
#96=CARTESIAN_POINT('',(-19.457551652531993,11.97588418943452,5.128417558157826));
#97=CARTESIAN_POINT('',(-19.601869137389805,11.841367928425978,5.168107147889597));
#98=CARTESIAN_POINT('',(-19.817127608430226,11.541299134107888,5.210477959334493));
#99=CARTESIAN_POINT('',(-19.892696709733432,11.385239011630777,5.217017157221719));
#100=CARTESIAN_POINT('',(-19.940159850095501,11.21932165434581,5.203863646699918));
#101=B_SPLINE_CURVE_WITH_KNOTS('',3,(#77,#78,#79,#80,#81,#82,#83,#84,#85,#86,#87,#88,#89,#90,#91,#92,#93,#94,#95,#96,#97,#98,#99,#100),.UNSPECIFIED.,.F.,.U.,(4,2,2,2,2,2,2,2,2,2,2,4),(-0.392607952438812,-0.365276937812071,-0.336190810402469,-0.282469589685975,-0.234827408868575,-0.212337004298969,-0.196674954738046,-0.181103744740786,-0.159050302261159,-0.111435757302204,-0.051921961232655,0.0),.UNSPECIFIED.);
#102=EDGE_CURVE('',#74,#76,#101,.T.);
#103=ORIENTED_EDGE('',*,*,#102,.F.);
#104=CARTESIAN_POINT('',(-17.055855326259632,10.394223227623316,5.20386364669992));
#105=VERTEX_POINT('',#104);
#106=CARTESIAN_POINT('',(-17.055855326259632,10.394223227623316,5.20386364669992));
#107=CARTESIAN_POINT('',(-17.016793214226809,10.530773029195959,5.193038322085746));
#108=CARTESIAN_POINT('',(-16.998007588177568,10.671873106669683,5.187484939737176));
#109=CARTESIAN_POINT('',(-16.998007588177568,10.806772440984565,5.187484939737176));
#110=CARTESIAN_POINT('',(-16.998007588177568,10.941671775299444,5.187484939737176));
#111=CARTESIAN_POINT('',(-17.016793214226805,11.082771852773165,5.193038322085744));
#112=CARTESIAN_POINT('',(-17.055855326259632,11.219321654345809,5.203863646699919));
#113=B_SPLINE_CURVE_WITH_KNOTS('',3,(#106,#107,#108,#109,#110,#111,#112),.UNSPECIFIED.,.F.,.U.,(4,3,4),(-0.040469800294465,0.0,0.040469800294464),.UNSPECIFIED.);
#114=EDGE_CURVE('',#105,#74,#113,.T.);
#115=ORIENTED_EDGE('',*,*,#114,.F.);
#116=CARTESIAN_POINT('',(-19.940159850095501,10.394223227623316,5.20386364669992));
#117=VERTEX_POINT('',#116);
#118=CARTESIAN_POINT('',(-19.940159850095501,10.394223227623316,5.20386364669992));
#119=CARTESIAN_POINT('',(-19.915173416930301,10.306877912350821,5.210788163473012));
#120=CARTESIAN_POINT('',(-19.882277953767552,10.221888660511301,5.212289227382774));
#121=CARTESIAN_POINT('',(-19.798753661878308,10.053478011549421,5.205879817254115));
#122=CARTESIAN_POINT('',(-19.747566782678678,9.971394518727028,5.197387366461981));
#123=CARTESIAN_POINT('',(-19.581091180562083,9.753919340467167,5.162349029334298));
#124=CARTESIAN_POINT('',(-19.449799903262345,9.634297862064724,5.126657139409158));
#125=CARTESIAN_POINT('',(-19.171146779419676,9.457345059329111,5.057657987519569));
#126=CARTESIAN_POINT('',(-19.027331661426853,9.394530122011634,5.024739133337592));
#127=CARTESIAN_POINT('',(-18.803821459694873,9.336411016331269,4.991821388194889));
#128=CARTESIAN_POINT('',(-18.730670812002487,9.323044711613017,4.983688858575485));
#129=CARTESIAN_POINT('',(-18.604658294299274,9.309664643805103,4.975469757092538));
#130=CARTESIAN_POINT('',(-18.552704337640314,9.30686366924563,4.973705507981718));
#131=CARTESIAN_POINT('',(-18.448736876620689,9.306686104469577,4.973594536480184));
#132=CARTESIAN_POINT('',(-18.397070358432558,9.309278750548183,4.975228332750431));
#133=CARTESIAN_POINT('',(-18.272729478403086,9.321977202854688,4.983038718390288));
#134=CARTESIAN_POINT('',(-18.200912091777759,9.334694664693801,4.990793407104489));
#135=CARTESIAN_POINT('',(-17.978388333057747,9.390932549612618,5.02281035064931));
#136=CARTESIAN_POINT('',(-17.83420812468713,9.452739962660003,5.055480419097637));
#137=CARTESIAN_POINT('',(-17.53846352382315,9.637660692534602,5.128417558157827));
#138=CARTESIAN_POINT('',(-17.394146038965339,9.772176953543145,5.1681071478896));
#139=CARTESIAN_POINT('',(-17.178887567924917,10.072245747861231,5.210477959334495));
#140=CARTESIAN_POINT('',(-17.103318466621705,10.228305870338346,5.217017157221723));
#141=CARTESIAN_POINT('',(-17.055855326259632,10.394223227623316,5.20386364669992));
#142=B_SPLINE_CURVE_WITH_KNOTS('',3,(#118,#119,#120,#121,#122,#123,#124,#125,#126,#127,#128,#129,#130,#131,#132,#133,#134,#135,#136,#137,#138,#139,#140,#141),.UNSPECIFIED.,.F.,.U.,(4,2,2,2,2,2,2,2,2,2,2,4),(-0.39260795243878,-0.365276937812037,-0.336190810402442,-0.282469589685949,-0.23482740886855,-0.212337004298951,-0.196674954738039,-0.181103744740789,-0.159050302261168,-0.111435757302211,-0.051921961232656,0.0),.UNSPECIFIED.);
#143=EDGE_CURVE('',#117,#105,#142,.T.);
#144=ORIENTED_EDGE('',*,*,#143,.F.);
#145=CARTESIAN_POINT('',(-19.940159850095505,11.219321654345809,5.203863646699919));
#146=CARTESIAN_POINT('',(-19.979221962128328,11.082771852773167,5.193038322085744));
#147=CARTESIAN_POINT('',(-19.998007588177565,10.941671775299444,5.187484939737176));
#148=CARTESIAN_POINT('',(-19.998007588177565,10.671873106669683,5.187484939737176));
#149=CARTESIAN_POINT('',(-19.979221962128328,10.530773029195956,5.193038322085744));
#150=CARTESIAN_POINT('',(-19.940159850095505,10.394223227623316,5.203863646699919));
#151=B_SPLINE_CURVE_WITH_KNOTS('',3,(#145,#146,#147,#148,#149,#150),.UNSPECIFIED.,.F.,.U.,(4,2,4),(0.41414404019508,0.454613840489544,0.495083640784009),.UNSPECIFIED.);
#152=EDGE_CURVE('',#76,#117,#151,.T.);
#153=ORIENTED_EDGE('',*,*,#152,.F.);
#154=EDGE_LOOP('',(#103,#115,#144,#153));
#155=FACE_OUTER_BOUND('',#154,.T.);
#156=CARTESIAN_POINT('',(-19.998007588177565,10.806772440984565,7.654505144059154));
#157=VERTEX_POINT('',#156);
#158=CARTESIAN_POINT('',(-18.498007588177568,10.806772440984565,7.654505144059154));
#159=DIRECTION('',(0.0,0.0,-1.0));
#160=DIRECTION('',(1.0,0.0,0.0));
#161=AXIS2_PLACEMENT_3D('',#158,#159,#160);
#162=CIRCLE('',#161,1.5);
#163=EDGE_CURVE('',#157,#157,#162,.T.);
#164=ORIENTED_EDGE('',*,*,#163,.F.);
#165=EDGE_LOOP('',(#164));
#166=FACE_BOUND('',#165,.T.);
#167=ADVANCED_FACE('',(#155,#166),#72,.F.);
#168=CARTESIAN_POINT('',(-18.498007588177568,10.394223227623316,-1.110223E-015));
#169=DIRECTION('',(0.0,1.0,0.0));
#170=DIRECTION('',(0.0,0.0,-1.0));
#171=AXIS2_PLACEMENT_3D('',#168,#169,#170);
#172=TOROIDAL_SURFACE('',#171,3.800000000000001,1.6);
#173=CARTESIAN_POINT('',(-14.498007588177568,8.80677244098456,-1.600082E-015));
#174=VERTEX_POINT('',#173);
#175=CARTESIAN_POINT('',(-18.498007588177568,8.80677244098456,-1.110223E-015));
#176=DIRECTION('',(0.0,1.0,0.0));
#177=DIRECTION('',(-1.0,0.0,0.0));
#178=AXIS2_PLACEMENT_3D('',#175,#176,#177);
#179=CIRCLE('',#178,4.0);
#180=EDGE_CURVE('',#174,#174,#179,.T.);
#181=ORIENTED_EDGE('',*,*,#180,.F.);
#182=EDGE_LOOP('',(#181));
#183=FACE_OUTER_BOUND('',#182,.T.);
#184=ORIENTED_EDGE('',*,*,#143,.T.);
#185=CARTESIAN_POINT('',(-18.498007588177568,10.394223227623316,-1.110223E-015));
#186=DIRECTION('',(0.0,1.0,0.0));
#187=DIRECTION('',(0.0,0.0,-1.0));
#188=AXIS2_PLACEMENT_3D('',#185,#186,#187);
#189=CIRCLE('',#188,5.400000000000001);
#190=EDGE_CURVE('',#105,#117,#189,.T.);
#191=ORIENTED_EDGE('',*,*,#190,.T.);
#192=EDGE_LOOP('',(#184,#191));
#193=FACE_BOUND('',#192,.T.);
#194=ADVANCED_FACE('',(#183,#193),#172,.F.);
#195=CARTESIAN_POINT('',(-18.498007588177568,11.219321654345809,-1.110223E-015));
#196=DIRECTION('',(0.0,-1.0,0.0));
#197=DIRECTION('',(0.0,0.0,-1.0));
#198=AXIS2_PLACEMENT_3D('',#195,#196,#197);
#199=TOROIDAL_SURFACE('',#198,3.8,1.6);
#200=CARTESIAN_POINT('',(-14.498007588177568,12.806772440984563,-6.203643E-016));
#201=VERTEX_POINT('',#200);
#202=CARTESIAN_POINT('',(-18.498007588177568,12.806772440984563,-1.110223E-015));
#203=DIRECTION('',(0.0,-1.0,0.0));
#204=DIRECTION('',(-1.0,0.0,0.0));
#205=AXIS2_PLACEMENT_3D('',#202,#203,#204);
#206=CIRCLE('',#205,4.0);
#207=EDGE_CURVE('',#201,#201,#206,.T.);
#208=ORIENTED_EDGE('',*,*,#207,.F.);
#209=EDGE_LOOP('',(#208));
#210=FACE_OUTER_BOUND('',#209,.T.);
#211=ORIENTED_EDGE('',*,*,#102,.T.);
#212=CARTESIAN_POINT('',(-18.498007588177568,11.219321654345809,-1.110223E-015));
#213=DIRECTION('',(0.0,-1.0,0.0));
#214=DIRECTION('',(0.0,0.0,-1.0));
#215=AXIS2_PLACEMENT_3D('',#212,#213,#214);
#216=CIRCLE('',#215,5.4);
#217=EDGE_CURVE('',#76,#74,#216,.T.);
#218=ORIENTED_EDGE('',*,*,#217,.T.);
#219=EDGE_LOOP('',(#211,#218));
#220=FACE_BOUND('',#219,.T.);
#221=ADVANCED_FACE('',(#210,#220),#199,.F.);
#222=CARTESIAN_POINT('',(-18.498007588177568,10.806772440984565,15.750000000000002));
#223=DIRECTION('',(0.0,0.0,1.0));
#224=DIRECTION('',(-1.0,0.0,0.0));
#225=AXIS2_PLACEMENT_3D('',#222,#223,#224);
#226=CONICAL_SURFACE('',#225,2.324999999999999,44.999999999999879);
#227=CARTESIAN_POINT('',(-16.423007588177569,10.806772440984565,15.5));
#228=VERTEX_POINT('',#227);
#229=CARTESIAN_POINT('',(-18.498007588177568,10.806772440984565,15.5));
#230=DIRECTION('',(0.0,0.0,-1.0));
#231=DIRECTION('',(-1.0,0.0,0.0));
#232=AXIS2_PLACEMENT_3D('',#229,#230,#231);
#233=CIRCLE('',#232,2.075);
#234=EDGE_CURVE('',#228,#228,#233,.T.);
#235=ORIENTED_EDGE('',*,*,#234,.T.);
#236=EDGE_LOOP('',(#235));
#237=FACE_OUTER_BOUND('',#236,.T.);
#238=CARTESIAN_POINT('',(-15.923007588177569,10.806772440984565,16.0));
#239=VERTEX_POINT('',#238);
#240=CARTESIAN_POINT('',(-18.498007588177568,10.806772440984565,16.0));
#241=DIRECTION('',(0.0,0.0,1.0));
#242=DIRECTION('',(-1.0,0.0,0.0));
#243=AXIS2_PLACEMENT_3D('',#240,#241,#242);
#244=CIRCLE('',#243,2.574999999999998);
#245=EDGE_CURVE('',#239,#239,#244,.T.);
#246=ORIENTED_EDGE('',*,*,#245,.T.);
#247=EDGE_LOOP('',(#246));
#248=FACE_BOUND('',#247,.T.);
#249=ADVANCED_FACE('',(#237,#248),#226,.F.);
#250=CARTESIAN_POINT('',(-18.498007588177568,10.806772440984565,12.000000000000002));
#251=DIRECTION('',(0.0,0.0,1.0));
#252=DIRECTION('',(1.0,0.0,0.0));
#253=AXIS2_PLACEMENT_3D('',#250,#251,#252);
#254=CYLINDRICAL_SURFACE('',#253,2.075);
#255=CARTESIAN_POINT('',(-16.423007588177569,10.806772440984565,8.0));
#256=VERTEX_POINT('',#255);
#257=CARTESIAN_POINT('',(-18.498007588177568,10.806772440984565,8.0));
#258=DIRECTION('',(0.0,0.0,1.0));
#259=DIRECTION('',(1.0,0.0,0.0));
#260=AXIS2_PLACEMENT_3D('',#257,#258,#259);
#261=CIRCLE('',#260,2.075);
#262=EDGE_CURVE('',#256,#256,#261,.T.);
#263=ORIENTED_EDGE('',*,*,#262,.F.);
#264=EDGE_LOOP('',(#263));
#265=FACE_OUTER_BOUND('',#264,.T.);
#266=ORIENTED_EDGE('',*,*,#234,.F.);
#267=EDGE_LOOP('',(#266));
#268=FACE_BOUND('',#267,.T.);
#269=ADVANCED_FACE('',(#265,#268),#254,.F.);
#270=CARTESIAN_POINT('',(-18.498007588177568,10.806772440984565,16.0));
#271=DIRECTION('',(0.0,0.0,-1.0));
#272=DIRECTION('',(-1.0,0.0,0.0));
#273=AXIS2_PLACEMENT_3D('',#270,#271,#272);
#274=PLANE('',#273);
#275=CARTESIAN_POINT('',(-15.248007588177568,10.806772440984565,16.0));
#276=VERTEX_POINT('',#275);
#277=CARTESIAN_POINT('',(-18.498007588177568,10.806772440984565,16.0));
#278=DIRECTION('',(0.0,0.0,-1.0));
#279=DIRECTION('',(-1.0,0.0,0.0));
#280=AXIS2_PLACEMENT_3D('',#277,#278,#279);
#281=CIRCLE('',#280,3.25);
#282=EDGE_CURVE('',#276,#276,#281,.T.);
#283=ORIENTED_EDGE('',*,*,#282,.F.);
#284=EDGE_LOOP('',(#283));
#285=FACE_OUTER_BOUND('',#284,.T.);
#286=ORIENTED_EDGE('',*,*,#245,.F.);
#287=EDGE_LOOP('',(#286));
#288=FACE_BOUND('',#287,.T.);
#289=ADVANCED_FACE('',(#285,#288),#274,.F.);
#290=CARTESIAN_POINT('',(-18.498007588177568,10.806772440984565,7.101936355670897));
#291=DIRECTION('',(0.0,0.0,-1.0));
#292=DIRECTION('',(-1.0,0.0,0.0));
#293=AXIS2_PLACEMENT_3D('',#290,#291,#292);
#294=TOROIDAL_SURFACE('',#293,4.849999999999999,1.6);
#295=CARTESIAN_POINT('',(-15.248007588177568,10.806772440984565,7.101936355670897));
#296=VERTEX_POINT('',#295);
#297=CARTESIAN_POINT('',(-18.498007588177568,10.806772440984565,7.101936355670897));
#298=DIRECTION('',(0.0,0.0,-1.0));
#299=DIRECTION('',(-1.0,0.0,0.0));
#300=AXIS2_PLACEMENT_3D('',#297,#298,#299);
#301=CIRCLE('',#300,3.25);
#302=EDGE_CURVE('',#296,#296,#301,.T.);
#303=ORIENTED_EDGE('',*,*,#302,.T.);
#304=EDGE_LOOP('',(#303));
#305=FACE_OUTER_BOUND('',#304,.T.);
#306=CARTESIAN_POINT('',(-14.550333169572918,10.806772440984565,5.780645870894916));
#307=VERTEX_POINT('',#306);
#308=CARTESIAN_POINT('',(-18.498007588177568,10.806772440984565,5.780645870894916));
#309=DIRECTION('',(0.0,0.0,1.0));
#310=DIRECTION('',(-1.0,0.0,0.0));
#311=AXIS2_PLACEMENT_3D('',#308,#309,#310);
#312=CIRCLE('',#311,3.94767441860465);
#313=EDGE_CURVE('',#307,#307,#312,.T.);
#314=ORIENTED_EDGE('',*,*,#313,.T.);
#315=EDGE_LOOP('',(#314));
#316=FACE_BOUND('',#315,.T.);
#317=ADVANCED_FACE('',(#305,#316),#294,.F.);
#318=CARTESIAN_POINT('',(-18.498007588177568,10.806772440984565,0.0));
#319=DIRECTION('',(0.0,0.0,1.0));
#320=DIRECTION('',(1.0,0.0,0.0));
#321=AXIS2_PLACEMENT_3D('',#318,#319,#320);
#322=SPHERICAL_SURFACE('',#321,7.000000000000001);
#323=CARTESIAN_POINT('',(-13.060866795444678,14.806772440984567,1.85404962177391));
#324=VERTEX_POINT('',#323);
#325=CARTESIAN_POINT('',(-23.935148380910455,14.806772440984567,1.85404962177391));
#326=VERTEX_POINT('',#325);
#327=CARTESIAN_POINT('',(-18.498007588177568,14.806772440984567,0.0));
#328=DIRECTION('',(0.0,-1.0,0.0));
#329=DIRECTION('',(0.0,0.0,1.0));
#330=AXIS2_PLACEMENT_3D('',#327,#328,#329);
#331=CIRCLE('',#330,5.744562646538029);
#332=EDGE_CURVE('',#324,#326,#331,.T.);
#333=ORIENTED_EDGE('',*,*,#332,.T.);
#334=CARTESIAN_POINT('',(-23.935148380910455,6.806772440984564,1.854049621773912));
#335=VERTEX_POINT('',#334);
#336=CARTESIAN_POINT('',(-18.498007588177568,10.806772440984565,1.85404962177391));
#337=DIRECTION('',(0.0,0.0,-1.0));
#338=DIRECTION('',(-1.0,0.0,0.0));
#339=AXIS2_PLACEMENT_3D('',#336,#337,#338);
#340=CIRCLE('',#339,6.750000000000003);
#341=EDGE_CURVE('',#335,#326,#340,.T.);
#342=ORIENTED_EDGE('',*,*,#341,.F.);
#343=CARTESIAN_POINT('',(-13.060866795444678,6.806772440984564,1.854049621773912));
#344=VERTEX_POINT('',#343);
#345=CARTESIAN_POINT('',(-18.498007588177568,6.806772440984564,0.0));
#346=DIRECTION('',(0.0,1.0,0.0));
#347=DIRECTION('',(0.0,0.0,-1.0));
#348=AXIS2_PLACEMENT_3D('',#345,#346,#347);
#349=CIRCLE('',#348,5.74456264653803);
#350=EDGE_CURVE('',#335,#344,#349,.T.);
#351=ORIENTED_EDGE('',*,*,#350,.T.);
#352=CARTESIAN_POINT('',(-18.498007588177568,10.806772440984565,1.85404962177391));
#353=DIRECTION('',(0.0,0.0,-1.0));
#354=DIRECTION('',(-1.0,0.0,0.0));
#355=AXIS2_PLACEMENT_3D('',#352,#353,#354);
#356=CIRCLE('',#355,6.750000000000003);
#357=EDGE_CURVE('',#324,#344,#356,.T.);
#358=ORIENTED_EDGE('',*,*,#357,.F.);
#359=EDGE_LOOP('',(#333,#342,#351,#358));
#360=FACE_OUTER_BOUND('',#359,.T.);
#361=ORIENTED_EDGE('',*,*,#313,.F.);
#362=EDGE_LOOP('',(#361));
#363=FACE_BOUND('',#362,.T.);
#364=ADVANCED_FACE('',(#360,#363),#322,.T.);
#365=CARTESIAN_POINT('',(-18.498007588177568,10.806772440984565,0.0));
#366=DIRECTION('',(0.0,0.0,1.0));
#367=DIRECTION('',(-1.0,0.0,0.0));
#368=AXIS2_PLACEMENT_3D('',#365,#366,#367);
#369=CYLINDRICAL_SURFACE('',#368,3.25);
#370=ORIENTED_EDGE('',*,*,#282,.T.);
#371=EDGE_LOOP('',(#370));
#372=FACE_OUTER_BOUND('',#371,.T.);
#373=ORIENTED_EDGE('',*,*,#302,.F.);
#374=EDGE_LOOP('',(#373));
#375=FACE_BOUND('',#374,.T.);
#376=ADVANCED_FACE('',(#372,#375),#369,.T.);
#377=CARTESIAN_POINT('',(-18.498007588177568,10.806772440984563,-1.110223E-015));
#378=DIRECTION('',(0.0,1.0,0.0));
#379=DIRECTION('',(0.0,0.0,-1.0));
#380=AXIS2_PLACEMENT_3D('',#377,#378,#379);
#381=CYLINDRICAL_SURFACE('',#380,5.400000000000001);
#382=ORIENTED_EDGE('',*,*,#152,.T.);
#383=ORIENTED_EDGE('',*,*,#190,.F.);
#384=ORIENTED_EDGE('',*,*,#114,.T.);
#385=ORIENTED_EDGE('',*,*,#217,.F.);
#386=EDGE_LOOP('',(#382,#383,#384,#385));
#387=FACE_OUTER_BOUND('',#386,.T.);
#388=ADVANCED_FACE('',(#387),#381,.F.);
#389=CARTESIAN_POINT('',(-18.498007588177568,-13.036539143667149,-1.110223E-015));
#390=DIRECTION('',(0.0,1.0,0.0));
#391=DIRECTION('',(-1.0,0.0,0.0));
#392=AXIS2_PLACEMENT_3D('',#389,#390,#391);
#393=CYLINDRICAL_SURFACE('',#392,4.0);
#394=CARTESIAN_POINT('',(-22.498007588177565,14.806772440984567,-1.110223E-015));
#395=VERTEX_POINT('',#394);
#396=CARTESIAN_POINT('',(-18.498007588177568,14.806772440984567,-1.110223E-015));
#397=DIRECTION('',(0.0,-1.0,0.0));
#398=DIRECTION('',(-1.0,0.0,0.0));
#399=AXIS2_PLACEMENT_3D('',#396,#397,#398);
#400=CIRCLE('',#399,4.0);
#401=EDGE_CURVE('',#395,#395,#400,.T.);
#402=ORIENTED_EDGE('',*,*,#401,.F.);
#403=EDGE_LOOP('',(#402));
#404=FACE_OUTER_BOUND('',#403,.T.);
#405=ORIENTED_EDGE('',*,*,#207,.T.);
#406=EDGE_LOOP('',(#405));
#407=FACE_BOUND('',#406,.T.);
#408=ADVANCED_FACE('',(#404,#407),#393,.F.);
#409=CARTESIAN_POINT('',(-18.498007588177568,-13.036539143667149,-1.110223E-015));
#410=DIRECTION('',(0.0,1.0,0.0));
#411=DIRECTION('',(-1.0,0.0,0.0));
#412=AXIS2_PLACEMENT_3D('',#409,#410,#411);
#413=CYLINDRICAL_SURFACE('',#412,4.0);
#414=ORIENTED_EDGE('',*,*,#180,.T.);
#415=EDGE_LOOP('',(#414));
#416=FACE_OUTER_BOUND('',#415,.T.);
#417=CARTESIAN_POINT('',(-14.498007588177568,6.806772440984563,-1.600082E-015));
#418=VERTEX_POINT('',#417);
#419=CARTESIAN_POINT('',(-18.498007588177568,6.806772440984563,-1.110223E-015));
#420=DIRECTION('',(0.0,1.0,0.0));
#421=DIRECTION('',(-1.0,0.0,0.0));
#422=AXIS2_PLACEMENT_3D('',#419,#420,#421);
#423=CIRCLE('',#422,4.0);
#424=EDGE_CURVE('',#418,#418,#423,.T.);
#425=ORIENTED_EDGE('',*,*,#424,.F.);
#426=EDGE_LOOP('',(#425));
#427=FACE_BOUND('',#426,.T.);
#428=ADVANCED_FACE('',(#416,#427),#413,.F.);
#429=CARTESIAN_POINT('',(-23.935148380910455,14.806772440984567,16.0));
#430=DIRECTION('',(0.0,-1.0,0.0));
#431=DIRECTION('',(0.0,0.0,-1.0));
#432=AXIS2_PLACEMENT_3D('',#429,#430,#431);
#433=PLANE('',#432);
#434=ORIENTED_EDGE('',*,*,#332,.F.);
#435=CARTESIAN_POINT('',(-13.060866795444678,14.806772440984567,-1.85404962177391));
#436=VERTEX_POINT('',#435);
#437=CARTESIAN_POINT('',(-13.060866795444683,14.806772440984567,-1.85404962177391));
#438=DIRECTION('',(0.0,0.0,1.0));
#439=VECTOR('',#438,3.708099243547819);
#440=LINE('',#437,#439);
#441=EDGE_CURVE('',#436,#324,#440,.T.);
#442=ORIENTED_EDGE('',*,*,#441,.F.);
#443=CARTESIAN_POINT('',(-23.935148380910455,14.806772440984567,-1.85404962177391));
#444=VERTEX_POINT('',#443);
#445=CARTESIAN_POINT('',(-18.498007588177568,14.806772440984567,0.0));
#446=DIRECTION('',(0.0,-1.0,0.0));
#447=DIRECTION('',(0.0,0.0,1.0));
#448=AXIS2_PLACEMENT_3D('',#445,#446,#447);
#449=CIRCLE('',#448,5.744562646538029);
#450=EDGE_CURVE('',#444,#436,#449,.T.);
#451=ORIENTED_EDGE('',*,*,#450,.F.);
#452=CARTESIAN_POINT('',(-23.935148380910451,14.806772440984567,1.854049621773909));
#453=DIRECTION('',(0.0,0.0,-1.0));
#454=VECTOR('',#453,3.708099243547819);
#455=LINE('',#452,#454);
#456=EDGE_CURVE('',#326,#444,#455,.T.);
#457=ORIENTED_EDGE('',*,*,#456,.F.);
#458=EDGE_LOOP('',(#434,#442,#451,#457));
#459=FACE_OUTER_BOUND('',#458,.T.);
#460=ORIENTED_EDGE('',*,*,#401,.T.);
#461=EDGE_LOOP('',(#460));
#462=FACE_BOUND('',#461,.T.);
#463=ADVANCED_FACE('',(#459,#462),#433,.F.);
#464=CARTESIAN_POINT('',(-13.060866795444678,6.806772440984564,16.0));
#465=DIRECTION('',(0.0,1.0,0.0));
#466=DIRECTION('',(0.0,0.0,1.0));
#467=AXIS2_PLACEMENT_3D('',#464,#465,#466);
#468=PLANE('',#467);
#469=ORIENTED_EDGE('',*,*,#350,.F.);
#470=CARTESIAN_POINT('',(-23.935148380910455,6.806772440984564,-1.854049621773912));
#471=VERTEX_POINT('',#470);
#472=CARTESIAN_POINT('',(-23.935148380910451,6.806772440984564,-1.854049621773914));
#473=DIRECTION('',(0.0,0.0,1.0));
#474=VECTOR('',#473,3.708099243547824);
#475=LINE('',#472,#474);
#476=EDGE_CURVE('',#471,#335,#475,.T.);
#477=ORIENTED_EDGE('',*,*,#476,.F.);
#478=CARTESIAN_POINT('',(-13.060866795444678,6.806772440984564,-1.854049621773912));
#479=VERTEX_POINT('',#478);
#480=CARTESIAN_POINT('',(-18.498007588177568,6.806772440984564,0.0));
#481=DIRECTION('',(0.0,1.0,0.0));
#482=DIRECTION('',(0.0,0.0,-1.0));
#483=AXIS2_PLACEMENT_3D('',#480,#481,#482);
#484=CIRCLE('',#483,5.74456264653803);
#485=EDGE_CURVE('',#479,#471,#484,.T.);
#486=ORIENTED_EDGE('',*,*,#485,.F.);
#487=CARTESIAN_POINT('',(-13.060866795444682,6.806772440984564,1.85404962177391));
#488=DIRECTION('',(0.0,0.0,-1.0));
#489=VECTOR('',#488,3.708099243547824);
#490=LINE('',#487,#489);
#491=EDGE_CURVE('',#344,#479,#490,.T.);
#492=ORIENTED_EDGE('',*,*,#491,.F.);
#493=EDGE_LOOP('',(#469,#477,#486,#492));
#494=FACE_OUTER_BOUND('',#493,.T.);
#495=ORIENTED_EDGE('',*,*,#424,.T.);
#496=EDGE_LOOP('',(#495));
#497=FACE_BOUND('',#496,.T.);
#498=ADVANCED_FACE('',(#494,#497),#468,.F.);
#499=CARTESIAN_POINT('',(-18.498007588177568,10.806772440984565,16.0));
#500=DIRECTION('',(0.0,0.0,-1.0));
#501=DIRECTION('',(-1.0,0.0,0.0));
#502=AXIS2_PLACEMENT_3D('',#499,#500,#501);
#503=CYLINDRICAL_SURFACE('',#502,6.75);
#504=ORIENTED_EDGE('',*,*,#456,.T.);
#505=CARTESIAN_POINT('',(-18.498007588177568,10.806772440984565,-1.85404962177391));
#506=DIRECTION('',(0.0,0.0,1.0));
#507=DIRECTION('',(-1.0,0.0,0.0));
#508=AXIS2_PLACEMENT_3D('',#505,#506,#507);
#509=CIRCLE('',#508,6.750000000000003);
#510=EDGE_CURVE('',#444,#471,#509,.T.);
#511=ORIENTED_EDGE('',*,*,#510,.T.);
#512=ORIENTED_EDGE('',*,*,#476,.T.);
#513=ORIENTED_EDGE('',*,*,#341,.T.);
#514=EDGE_LOOP('',(#504,#511,#512,#513));
#515=FACE_OUTER_BOUND('',#514,.T.);
#516=ADVANCED_FACE('',(#515),#503,.T.);
#517=CARTESIAN_POINT('',(-18.498007588177568,10.806772440984565,0.0));
#518=DIRECTION('',(0.0,0.0,1.0));
#519=DIRECTION('',(1.0,0.0,0.0));
#520=AXIS2_PLACEMENT_3D('',#517,#518,#519);
#521=SPHERICAL_SURFACE('',#520,7.000000000000001);
#522=ORIENTED_EDGE('',*,*,#450,.T.);
#523=CARTESIAN_POINT('',(-18.498007588177568,10.806772440984565,-1.85404962177391));
#524=DIRECTION('',(0.0,0.0,1.0));
#525=DIRECTION('',(-1.0,0.0,0.0));
#526=AXIS2_PLACEMENT_3D('',#523,#524,#525);
#527=CIRCLE('',#526,6.750000000000003);
#528=EDGE_CURVE('',#479,#436,#527,.T.);
#529=ORIENTED_EDGE('',*,*,#528,.F.);
#530=ORIENTED_EDGE('',*,*,#485,.T.);
#531=ORIENTED_EDGE('',*,*,#510,.F.);
#532=EDGE_LOOP('',(#522,#529,#530,#531));
#533=FACE_OUTER_BOUND('',#532,.T.);
#534=ADVANCED_FACE('',(#533),#521,.T.);
#535=CARTESIAN_POINT('',(-18.498007588177568,10.806772440984565,7.376607107758907));
#536=DIRECTION('',(0.0,0.0,1.0));
#537=DIRECTION('',(1.0,0.0,0.0));
#538=AXIS2_PLACEMENT_3D('',#535,#536,#537);
#539=CONICAL_SURFACE('',#538,1.0375,59.000000000000021);
#540=ORIENTED_EDGE('',*,*,#163,.T.);
#541=EDGE_LOOP('',(#540));
#542=FACE_OUTER_BOUND('',#541,.T.);
#543=ORIENTED_EDGE('',*,*,#262,.T.);
#544=EDGE_LOOP('',(#543));
#545=FACE_BOUND('',#544,.T.);
#546=ADVANCED_FACE('',(#542,#545),#539,.F.);
#547=CARTESIAN_POINT('',(-18.498007588177568,10.806772440984565,16.0));
#548=DIRECTION('',(0.0,0.0,-1.0));
#549=DIRECTION('',(-1.0,0.0,0.0));
#550=AXIS2_PLACEMENT_3D('',#547,#548,#549);
#551=CYLINDRICAL_SURFACE('',#550,6.75);
#552=ORIENTED_EDGE('',*,*,#441,.T.);
#553=ORIENTED_EDGE('',*,*,#357,.T.);
#554=ORIENTED_EDGE('',*,*,#491,.T.);
#555=ORIENTED_EDGE('',*,*,#528,.T.);
#556=EDGE_LOOP('',(#552,#553,#554,#555));
#557=FACE_OUTER_BOUND('',#556,.T.);
#558=ADVANCED_FACE('',(#557),#551,.T.);
#559=CLOSED_SHELL('',(#167,#194,#221,#249,#269,#289,#317,#364,#376,#388,#408,#428,#463,#498,#516,#534,#546,#558));
#560=MANIFOLD_SOLID_BREP('T\X2\011B\X0\leso1',#559);
#561=COLOUR_RGB('Kov-Ocel',0.639216005802155,0.639216005802155,0.686275005340576);
#562=FILL_AREA_STYLE_COLOUR('Kov-Ocel',#561);
#563=FILL_AREA_STYLE('Kov-Ocel',(#562));
#564=SURFACE_STYLE_FILL_AREA(#563);
#565=SURFACE_SIDE_STYLE('Kov-Ocel',(#564));
#566=SURFACE_STYLE_USAGE(.BOTH.,#565);
#567=PRESENTATION_STYLE_ASSIGNMENT((#566));
#568=STYLED_ITEM('',(#567),#560);
#569=MECHANICAL_DESIGN_GEOMETRIC_PRESENTATION_REPRESENTATION('',(#568),#36);
#570=ADVANCED_BREP_SHAPE_REPRESENTATION('ABSR',(#560),#36);
#571=SHAPE_REPRESENTATION_RELATIONSHIP('SRR','None',#570,#41);
ENDSEC;
END-ISO-10303-21;
