ISO-10303-21;
HEADER;
/****************************************************************
 * Generated by software with PDElib inside                    *
 * PDElib Version v51a, created Wed 07/06/2011                  *
 * ITI Transcendata (http://www.transcendata.com/)              *
 ****************************************************************/
FILE_DESCRIPTION((''),'2;1');
FILE_NAME('j:\\prilohy\\modely\\74721403.stp','2014-09-08T15:04:19',(''),('KNOMI spol. s r. o.'),'Autodesk Inventor 2012','Autodesk Inventor 2012','');
FILE_SCHEMA(('AUTOMOTIVE_DESIGN { 1 2 10303 214 0 1 1 1 }'));
ENDSEC;
DATA;
#5=APPLICATION_CONTEXT('automotive design');
#6=APPLICATION_PROTOCOL_DEFINITION('Draft International Standard','automotive_design',1998,#5);
#7=PRODUCT_CONTEXT('None',#5,'mechanical');
#8=PRODUCT('Oko st.p\X2\0159\X0\\S\mp.p\S\ajec\S\m D8/Tr03,Js-2','Oko st.p\X2\0159\X0\\S\mp.p\S\ajec\S\m D8/Tr03,Js-2','None',(#7));
#9=PRODUCT_RELATED_PRODUCT_CATEGORY('part','description',(#8));
#10=PRODUCT_DEFINITION_FORMATION('None','None',#8);
#11=PRODUCT_DEFINITION_CONTEXT('part definition',#5,'design');
#12=PRODUCT_DEFINITION('None','None',#10,#11);
#18=(NAMED_UNIT(*)PLANE_ANGLE_UNIT()SI_UNIT($,.RADIAN.));
#19=DIMENSIONAL_EXPONENTS(0.0,0.0,0.0,0.0,0.0,0.0,0.0);
#20=PLANE_ANGLE_MEASURE_WITH_UNIT(PLANE_ANGLE_MEASURE(0.0174532925),#18);
#24=(CONVERSION_BASED_UNIT('DEGREE',#20)NAMED_UNIT(#19)PLANE_ANGLE_UNIT());
#28=(NAMED_UNIT(*)SI_UNIT($,.STERADIAN.)SOLID_ANGLE_UNIT());
#32=(LENGTH_UNIT()NAMED_UNIT(*)SI_UNIT(.MILLI.,.METRE.));
#34=UNCERTAINTY_MEASURE_WITH_UNIT(LENGTH_MEASURE(0.01),#32,'DISTANCE_ACCURACY_VALUE','');
#36=(GEOMETRIC_REPRESENTATION_CONTEXT(3)GLOBAL_UNCERTAINTY_ASSIGNED_CONTEXT((#34))GLOBAL_UNIT_ASSIGNED_CONTEXT((#24,#28,#32))REPRESENTATION_CONTEXT('None','None'));
#37=AXIS2_PLACEMENT_3D('',#38,#39,#40);
#38=CARTESIAN_POINT('',(0.0,0.0,0.0));
#39=DIRECTION('',(0.0,0.0,1.0));
#40=DIRECTION('',(1.0,0.0,0.0));
#41=SHAPE_REPRESENTATION('',(#37),#36);
#42=PRODUCT_DEFINITION_SHAPE('','',#12);
#43=SHAPE_DEFINITION_REPRESENTATION(#42,#41);
#49=(NAMED_UNIT(*)PLANE_ANGLE_UNIT()SI_UNIT($,.RADIAN.));
#50=DIMENSIONAL_EXPONENTS(0.0,0.0,0.0,0.0,0.0,0.0,0.0);
#51=PLANE_ANGLE_MEASURE_WITH_UNIT(PLANE_ANGLE_MEASURE(0.0174532925),#49);
#55=(CONVERSION_BASED_UNIT('DEGREE',#51)NAMED_UNIT(#50)PLANE_ANGLE_UNIT());
#59=(NAMED_UNIT(*)SI_UNIT($,.STERADIAN.)SOLID_ANGLE_UNIT());
#63=(LENGTH_UNIT()NAMED_UNIT(*)SI_UNIT(.MILLI.,.METRE.));
#65=UNCERTAINTY_MEASURE_WITH_UNIT(LENGTH_MEASURE(0.000001),#63,'DISTANCE_ACCURACY_VALUE','');
#67=(GEOMETRIC_REPRESENTATION_CONTEXT(3)GLOBAL_UNCERTAINTY_ASSIGNED_CONTEXT((#65))GLOBAL_UNIT_ASSIGNED_CONTEXT((#55,#59,#63))REPRESENTATION_CONTEXT('','3D'));
#68=CARTESIAN_POINT('',(-18.498007588177568,10.806772440984565,10.600000000000001));
#69=DIRECTION('',(0.0,0.0,1.0));
#70=DIRECTION('',(1.0,0.0,0.0));
#71=AXIS2_PLACEMENT_3D('',#68,#69,#70);
#72=CYLINDRICAL_SURFACE('',#71,1.0);
#73=CARTESIAN_POINT('',(-17.58707227403335,11.219321654345809,5.322611845085548));
#74=VERTEX_POINT('',#73);
#75=CARTESIAN_POINT('',(-19.408942902321783,11.219321654345809,5.322611845085548));
#76=VERTEX_POINT('',#75);
#77=CARTESIAN_POINT('',(-17.587072274033353,11.219321654345807,5.322611845085548));
#78=CARTESIAN_POINT('',(-17.632303112002067,11.319194266532707,5.330352850590595));
#79=CARTESIAN_POINT('',(-17.693655416584008,11.410987254151246,5.330719867261012));
#80=CARTESIAN_POINT('',(-17.85982993358455,11.588070931531522,5.322663756881124));
#81=CARTESIAN_POINT('',(-17.969243101526892,11.66588111080144,5.312583843321454));
#82=CARTESIAN_POINT('',(-18.159784737501546,11.750882450729993,5.29913020112979));
#83=CARTESIAN_POINT('',(-18.232296824464271,11.773807470115436,5.294786807628088));
#84=CARTESIAN_POINT('',(-18.350360111199514,11.796808374566423,5.290295515214774));
#85=CARTESIAN_POINT('',(-18.394455120584464,11.802388072993505,5.28915260073749));
#86=CARTESIAN_POINT('',(-18.476346632400155,11.807244994199319,5.288158708580703));
#87=CARTESIAN_POINT('',(-18.513977012529303,11.807352045094362,5.288136408429396));
#88=CARTESIAN_POINT('',(-18.595192973937507,11.802998619757725,5.289028057050071));
#89=CARTESIAN_POINT('',(-18.638625356089079,11.797800093769142,5.290094745450751));
#90=CARTESIAN_POINT('',(-18.753458678513621,11.776355818238367,5.294299531159874));
#91=CARTESIAN_POINT('',(-18.823573071933541,11.755105614386867,5.298353632780813));
#92=CARTESIAN_POINT('',(-19.009867172358359,11.675557741725875,5.31121402791165));
#93=CARTESIAN_POINT('',(-19.11803636806119,11.601994047804281,5.321141032128248));
#94=CARTESIAN_POINT('',(-19.292516648562241,11.425483919762963,5.330716615940862));
#95=CARTESIAN_POINT('',(-19.360107333290053,11.32715374558865,5.33096978019562));
#96=CARTESIAN_POINT('',(-19.408942902321783,11.219321654345809,5.322611845085548));
#97=B_SPLINE_CURVE_WITH_KNOTS('',3,(#77,#78,#79,#80,#81,#82,#83,#84,#85,#86,#87,#88,#89,#90,#91,#92,#93,#94,#95,#96),.UNSPECIFIED.,.F.,.U.,(4,2,2,2,2,2,2,2,2,4),(-0.229897782588097,-0.196923086969185,-0.156974018990943,-0.134201449338756,-0.120879266270104,-0.109600765251414,-0.096489699059712,-0.074547565406699,-0.035600948028648,0.0),.UNSPECIFIED.);
#98=EDGE_CURVE('',#74,#76,#97,.T.);
#99=ORIENTED_EDGE('',*,*,#98,.F.);
#100=CARTESIAN_POINT('',(-17.587072274033353,10.394223227623316,5.322611845085548));
#101=VERTEX_POINT('',#100);
#102=CARTESIAN_POINT('',(-17.587072274033353,10.394223227623316,5.322611845085548));
#103=CARTESIAN_POINT('',(-17.582657193140072,10.403972011453799,5.321856228629277));
#104=CARTESIAN_POINT('',(-17.578396899900788,10.413795569679966,5.321121452398274));
#105=CARTESIAN_POINT('',(-17.523223901412543,10.546830681082399,5.311542495913115));
#106=CARTESIAN_POINT('',(-17.498007588177565,10.680894738507178,5.306599664568639));
#107=CARTESIAN_POINT('',(-17.498007588177565,10.806772440984565,5.30659966456864));
#108=CARTESIAN_POINT('',(-17.498007588177565,10.932650143461949,5.30659966456864));
#109=CARTESIAN_POINT('',(-17.523223901412543,11.066714200886725,5.311542495913116));
#110=CARTESIAN_POINT('',(-17.578396899900788,11.199749312289157,5.321121452398275));
#111=CARTESIAN_POINT('',(-17.582657193140069,11.209572870515327,5.321856228629276));
#112=CARTESIAN_POINT('',(-17.587072274033353,11.219321654345809,5.322611845085548));
#113=B_SPLINE_CURVE_WITH_KNOTS('',3,(#102,#103,#104,#105,#106,#107,#108,#109,#110,#111,#112),.UNSPECIFIED.,.F.,.U.,(4,2,3,2,4),(-0.040796176896543,-0.037763310743215,0.0,0.037763310743215,0.040796176896543),.UNSPECIFIED.);
#114=EDGE_CURVE('',#101,#74,#113,.T.);
#115=ORIENTED_EDGE('',*,*,#114,.F.);
#116=CARTESIAN_POINT('',(-19.408942902321776,10.394223227623316,5.322611845085548));
#117=VERTEX_POINT('',#116);
#118=CARTESIAN_POINT('',(-19.40894290232178,10.394223227623316,5.322611845085548));
#119=CARTESIAN_POINT('',(-19.363712064353063,10.294350615436414,5.330352850590597));
#120=CARTESIAN_POINT('',(-19.302359759771118,10.202557627817875,5.330719867261013));
#121=CARTESIAN_POINT('',(-19.136185242770566,10.025473950437593,5.322663756881124));
#122=CARTESIAN_POINT('',(-19.026772074828223,9.947663771167679,5.312583843321455));
#123=CARTESIAN_POINT('',(-18.836230438853551,9.862662431239121,5.29913020112979));
#124=CARTESIAN_POINT('',(-18.763718351890841,9.83973741185369,5.294786807628089));
#125=CARTESIAN_POINT('',(-18.645655065155669,9.816736507402718,5.290295515214779));
#126=CARTESIAN_POINT('',(-18.60156005577069,9.811156808975621,5.289152600737492));
#127=CARTESIAN_POINT('',(-18.519668543954964,9.806299887769809,5.288158708580705));
#128=CARTESIAN_POINT('',(-18.482038163825823,9.806192836874766,5.288136408429399));
#129=CARTESIAN_POINT('',(-18.400822202417636,9.810546262211403,5.289028057050072));
#130=CARTESIAN_POINT('',(-18.357389820266079,9.81574478819998,5.290094745450752));
#131=CARTESIAN_POINT('',(-18.242556497841505,9.83718906373076,5.294299531159876));
#132=CARTESIAN_POINT('',(-18.172442104421588,9.858439267582261,5.298353632780816));
#133=CARTESIAN_POINT('',(-17.986148003996757,9.93798714024326,5.311214027911653));
#134=CARTESIAN_POINT('',(-17.877978808293939,10.011550834164858,5.32114103212825));
#135=CARTESIAN_POINT('',(-17.703498527792895,10.188060962206167,5.330716615940863));
#136=CARTESIAN_POINT('',(-17.635907843065088,10.286391136380475,5.330969780195622));
#137=CARTESIAN_POINT('',(-17.587072274033353,10.394223227623314,5.322611845085548));
#138=B_SPLINE_CURVE_WITH_KNOTS('',3,(#118,#119,#120,#121,#122,#123,#124,#125,#126,#127,#128,#129,#130,#131,#132,#133,#134,#135,#136,#137),.UNSPECIFIED.,.F.,.U.,(4,2,2,2,2,2,2,2,2,4),(-0.229897782588298,-0.196923086969318,-0.156974018991,-0.134201449338766,-0.120879266270102,-0.109600765251407,-0.096489699059702,-0.074547565406694,-0.035600948028648,0.0),.UNSPECIFIED.);
#139=EDGE_CURVE('',#117,#101,#138,.T.);
#140=ORIENTED_EDGE('',*,*,#139,.F.);
#141=CARTESIAN_POINT('',(-19.408942902321783,11.219321654345809,5.322611845085548));
#142=CARTESIAN_POINT('',(-19.413357983215064,11.209572870515327,5.321856228629276));
#143=CARTESIAN_POINT('',(-19.417618276454345,11.199749312289157,5.321121452398275));
#144=CARTESIAN_POINT('',(-19.472791274942594,11.066714200886725,5.311542495913116));
#145=CARTESIAN_POINT('',(-19.498007588177568,10.932650143461949,5.30659966456864));
#146=CARTESIAN_POINT('',(-19.498007588177568,10.680894738507181,5.30659966456864));
#147=CARTESIAN_POINT('',(-19.472791274942594,10.546830681082405,5.311542495913116));
#148=CARTESIAN_POINT('',(-19.417618276454341,10.413795569679969,5.321121452398275));
#149=CARTESIAN_POINT('',(-19.413357983215064,10.403972011453799,5.321856228629277));
#150=CARTESIAN_POINT('',(-19.40894290232178,10.394223227623316,5.322611845085548));
#151=B_SPLINE_CURVE_WITH_KNOTS('',3,(#141,#142,#143,#144,#145,#146,#147,#148,#149,#150),.UNSPECIFIED.,.F.,.U.,(4,2,2,2,4),(0.261304121535724,0.264336987689052,0.302100298432267,0.339863609175482,0.342896475328811),.UNSPECIFIED.);
#152=EDGE_CURVE('',#76,#117,#151,.T.);
#153=ORIENTED_EDGE('',*,*,#152,.F.);
#154=EDGE_LOOP('',(#99,#115,#140,#153));
#155=FACE_OUTER_BOUND('',#154,.T.);
#156=CARTESIAN_POINT('',(-19.498007588177568,10.806772440984565,7.654505144059154));
#157=VERTEX_POINT('',#156);
#158=CARTESIAN_POINT('',(-18.498007588177568,10.806772440984565,7.654505144059154));
#159=DIRECTION('',(0.0,0.0,-1.0));
#160=DIRECTION('',(1.0,0.0,0.0));
#161=AXIS2_PLACEMENT_3D('',#158,#159,#160);
#162=CIRCLE('',#161,1.0);
#163=EDGE_CURVE('',#157,#157,#162,.T.);
#164=ORIENTED_EDGE('',*,*,#163,.F.);
#165=EDGE_LOOP('',(#164));
#166=FACE_BOUND('',#165,.T.);
#167=ADVANCED_FACE('',(#155,#166),#72,.F.);
#168=CARTESIAN_POINT('',(-18.498007588177568,10.394223227623316,-1.110223E-015));
#169=DIRECTION('',(0.0,1.0,0.0));
#170=DIRECTION('',(0.0,0.0,-1.0));
#171=AXIS2_PLACEMENT_3D('',#168,#169,#170);
#172=TOROIDAL_SURFACE('',#171,3.800000000000001,1.6);
#173=CARTESIAN_POINT('',(-14.498007588177568,8.80677244098456,-1.600082E-015));
#174=VERTEX_POINT('',#173);
#175=CARTESIAN_POINT('',(-18.498007588177568,8.80677244098456,-1.110223E-015));
#176=DIRECTION('',(0.0,1.0,0.0));
#177=DIRECTION('',(-1.0,0.0,0.0));
#178=AXIS2_PLACEMENT_3D('',#175,#176,#177);
#179=CIRCLE('',#178,4.0);
#180=EDGE_CURVE('',#174,#174,#179,.T.);
#181=ORIENTED_EDGE('',*,*,#180,.F.);
#182=EDGE_LOOP('',(#181));
#183=FACE_OUTER_BOUND('',#182,.T.);
#184=ORIENTED_EDGE('',*,*,#139,.T.);
#185=CARTESIAN_POINT('',(-18.498007588177568,10.394223227623316,-1.110223E-015));
#186=DIRECTION('',(0.0,1.0,0.0));
#187=DIRECTION('',(0.0,0.0,-1.0));
#188=AXIS2_PLACEMENT_3D('',#185,#186,#187);
#189=CIRCLE('',#188,5.400000000000001);
#190=EDGE_CURVE('',#101,#117,#189,.T.);
#191=ORIENTED_EDGE('',*,*,#190,.T.);
#192=EDGE_LOOP('',(#184,#191));
#193=FACE_BOUND('',#192,.T.);
#194=ADVANCED_FACE('',(#183,#193),#172,.F.);
#195=CARTESIAN_POINT('',(-18.498007588177568,11.219321654345809,-1.110223E-015));
#196=DIRECTION('',(0.0,-1.0,0.0));
#197=DIRECTION('',(0.0,0.0,-1.0));
#198=AXIS2_PLACEMENT_3D('',#195,#196,#197);
#199=TOROIDAL_SURFACE('',#198,3.8,1.6);
#200=CARTESIAN_POINT('',(-14.498007588177568,12.806772440984563,-6.203643E-016));
#201=VERTEX_POINT('',#200);
#202=CARTESIAN_POINT('',(-18.498007588177568,12.806772440984563,-1.110223E-015));
#203=DIRECTION('',(0.0,-1.0,0.0));
#204=DIRECTION('',(-1.0,0.0,0.0));
#205=AXIS2_PLACEMENT_3D('',#202,#203,#204);
#206=CIRCLE('',#205,4.0);
#207=EDGE_CURVE('',#201,#201,#206,.T.);
#208=ORIENTED_EDGE('',*,*,#207,.F.);
#209=EDGE_LOOP('',(#208));
#210=FACE_OUTER_BOUND('',#209,.T.);
#211=ORIENTED_EDGE('',*,*,#98,.T.);
#212=CARTESIAN_POINT('',(-18.498007588177568,11.219321654345809,-1.110223E-015));
#213=DIRECTION('',(0.0,-1.0,0.0));
#214=DIRECTION('',(0.0,0.0,-1.0));
#215=AXIS2_PLACEMENT_3D('',#212,#213,#214);
#216=CIRCLE('',#215,5.4);
#217=EDGE_CURVE('',#76,#74,#216,.T.);
#218=ORIENTED_EDGE('',*,*,#217,.T.);
#219=EDGE_LOOP('',(#211,#218));
#220=FACE_BOUND('',#219,.T.);
#221=ADVANCED_FACE('',(#210,#220),#199,.F.);
#222=CARTESIAN_POINT('',(-18.498007588177568,10.806772440984565,15.750000000000002));
#223=DIRECTION('',(0.0,0.0,1.0));
#224=DIRECTION('',(-1.0,0.0,0.0));
#225=AXIS2_PLACEMENT_3D('',#222,#223,#224);
#226=CONICAL_SURFACE('',#225,1.824999999999999,44.999999999999879);
#227=CARTESIAN_POINT('',(-16.923007588177569,10.806772440984565,15.5));
#228=VERTEX_POINT('',#227);
#229=CARTESIAN_POINT('',(-18.498007588177568,10.806772440984565,15.5));
#230=DIRECTION('',(0.0,0.0,-1.0));
#231=DIRECTION('',(-1.0,0.0,0.0));
#232=AXIS2_PLACEMENT_3D('',#229,#230,#231);
#233=CIRCLE('',#232,1.575);
#234=EDGE_CURVE('',#228,#228,#233,.T.);
#235=ORIENTED_EDGE('',*,*,#234,.T.);
#236=EDGE_LOOP('',(#235));
#237=FACE_OUTER_BOUND('',#236,.T.);
#238=CARTESIAN_POINT('',(-16.423007588177569,10.806772440984565,16.0));
#239=VERTEX_POINT('',#238);
#240=CARTESIAN_POINT('',(-18.498007588177568,10.806772440984565,16.0));
#241=DIRECTION('',(0.0,0.0,1.0));
#242=DIRECTION('',(-1.0,0.0,0.0));
#243=AXIS2_PLACEMENT_3D('',#240,#241,#242);
#244=CIRCLE('',#243,2.074999999999998);
#245=EDGE_CURVE('',#239,#239,#244,.T.);
#246=ORIENTED_EDGE('',*,*,#245,.T.);
#247=EDGE_LOOP('',(#246));
#248=FACE_BOUND('',#247,.T.);
#249=ADVANCED_FACE('',(#237,#248),#226,.F.);
#250=CARTESIAN_POINT('',(-18.498007588177568,10.806772440984565,12.000000000000002));
#251=DIRECTION('',(0.0,0.0,1.0));
#252=DIRECTION('',(1.0,0.0,0.0));
#253=AXIS2_PLACEMENT_3D('',#250,#251,#252);
#254=CYLINDRICAL_SURFACE('',#253,1.575);
#255=CARTESIAN_POINT('',(-16.923007588177569,10.806772440984565,8.0));
#256=VERTEX_POINT('',#255);
#257=CARTESIAN_POINT('',(-18.498007588177568,10.806772440984565,8.0));
#258=DIRECTION('',(0.0,0.0,1.0));
#259=DIRECTION('',(1.0,0.0,0.0));
#260=AXIS2_PLACEMENT_3D('',#257,#258,#259);
#261=CIRCLE('',#260,1.575);
#262=EDGE_CURVE('',#256,#256,#261,.T.);
#263=ORIENTED_EDGE('',*,*,#262,.F.);
#264=EDGE_LOOP('',(#263));
#265=FACE_OUTER_BOUND('',#264,.T.);
#266=ORIENTED_EDGE('',*,*,#234,.F.);
#267=EDGE_LOOP('',(#266));
#268=FACE_BOUND('',#267,.T.);
#269=ADVANCED_FACE('',(#265,#268),#254,.F.);
#270=CARTESIAN_POINT('',(-18.498007588177568,10.806772440984565,16.0));
#271=DIRECTION('',(0.0,0.0,-1.0));
#272=DIRECTION('',(-1.0,0.0,0.0));
#273=AXIS2_PLACEMENT_3D('',#270,#271,#272);
#274=PLANE('',#273);
#275=CARTESIAN_POINT('',(-15.748007588177568,10.806772440984565,16.0));
#276=VERTEX_POINT('',#275);
#277=CARTESIAN_POINT('',(-18.498007588177568,10.806772440984565,16.0));
#278=DIRECTION('',(0.0,0.0,-1.0));
#279=DIRECTION('',(-1.0,0.0,0.0));
#280=AXIS2_PLACEMENT_3D('',#277,#278,#279);
#281=CIRCLE('',#280,2.75);
#282=EDGE_CURVE('',#276,#276,#281,.T.);
#283=ORIENTED_EDGE('',*,*,#282,.F.);
#284=EDGE_LOOP('',(#283));
#285=FACE_OUTER_BOUND('',#284,.T.);
#286=ORIENTED_EDGE('',*,*,#245,.F.);
#287=EDGE_LOOP('',(#286));
#288=FACE_BOUND('',#287,.T.);
#289=ADVANCED_FACE('',(#285,#288),#274,.F.);
#290=CARTESIAN_POINT('',(-18.498007588177568,10.806772440984565,7.418726305775136));
#291=DIRECTION('',(0.0,0.0,-1.0));
#292=DIRECTION('',(-1.0,0.0,0.0));
#293=AXIS2_PLACEMENT_3D('',#290,#291,#292);
#294=TOROIDAL_SURFACE('',#293,4.350000000000001,1.6);
#295=CARTESIAN_POINT('',(-15.748007588177568,10.806772440984565,7.418726305775136));
#296=VERTEX_POINT('',#295);
#297=CARTESIAN_POINT('',(-18.498007588177568,10.806772440984565,7.418726305775136));
#298=DIRECTION('',(0.0,0.0,-1.0));
#299=DIRECTION('',(-1.0,0.0,0.0));
#300=AXIS2_PLACEMENT_3D('',#297,#298,#299);
#301=CIRCLE('',#300,2.75);
#302=EDGE_CURVE('',#296,#296,#301,.T.);
#303=ORIENTED_EDGE('',*,*,#302,.T.);
#304=EDGE_LOOP('',(#303));
#305=FACE_OUTER_BOUND('',#304,.T.);
#306=CARTESIAN_POINT('',(-14.957309913758962,10.806772440984565,6.038498155863483));
#307=VERTEX_POINT('',#306);
#308=CARTESIAN_POINT('',(-18.498007588177568,10.806772440984565,6.038498155863483));
#309=DIRECTION('',(0.0,0.0,1.0));
#310=DIRECTION('',(-1.0,0.0,0.0));
#311=AXIS2_PLACEMENT_3D('',#308,#309,#310);
#312=CIRCLE('',#311,3.540697674418605);
#313=EDGE_CURVE('',#307,#307,#312,.T.);
#314=ORIENTED_EDGE('',*,*,#313,.T.);
#315=EDGE_LOOP('',(#314));
#316=FACE_BOUND('',#315,.T.);
#317=ADVANCED_FACE('',(#305,#316),#294,.F.);
#318=CARTESIAN_POINT('',(-18.498007588177568,10.806772440984565,0.0));
#319=DIRECTION('',(0.0,0.0,1.0));
#320=DIRECTION('',(1.0,0.0,0.0));
#321=AXIS2_PLACEMENT_3D('',#318,#319,#320);
#322=SPHERICAL_SURFACE('',#321,7.000000000000001);
#323=CARTESIAN_POINT('',(-13.060866795444678,14.806772440984567,1.85404962177391));
#324=VERTEX_POINT('',#323);
#325=CARTESIAN_POINT('',(-23.935148380910455,14.806772440984567,1.85404962177391));
#326=VERTEX_POINT('',#325);
#327=CARTESIAN_POINT('',(-18.498007588177568,14.806772440984567,0.0));
#328=DIRECTION('',(0.0,-1.0,0.0));
#329=DIRECTION('',(0.0,0.0,1.0));
#330=AXIS2_PLACEMENT_3D('',#327,#328,#329);
#331=CIRCLE('',#330,5.744562646538029);
#332=EDGE_CURVE('',#324,#326,#331,.T.);
#333=ORIENTED_EDGE('',*,*,#332,.T.);
#334=CARTESIAN_POINT('',(-23.935148380910455,6.806772440984564,1.854049621773912));
#335=VERTEX_POINT('',#334);
#336=CARTESIAN_POINT('',(-18.498007588177568,10.806772440984565,1.85404962177391));
#337=DIRECTION('',(0.0,0.0,-1.0));
#338=DIRECTION('',(-1.0,0.0,0.0));
#339=AXIS2_PLACEMENT_3D('',#336,#337,#338);
#340=CIRCLE('',#339,6.750000000000003);
#341=EDGE_CURVE('',#335,#326,#340,.T.);
#342=ORIENTED_EDGE('',*,*,#341,.F.);
#343=CARTESIAN_POINT('',(-13.060866795444678,6.806772440984564,1.854049621773912));
#344=VERTEX_POINT('',#343);
#345=CARTESIAN_POINT('',(-18.498007588177568,6.806772440984564,0.0));
#346=DIRECTION('',(0.0,1.0,0.0));
#347=DIRECTION('',(0.0,0.0,-1.0));
#348=AXIS2_PLACEMENT_3D('',#345,#346,#347);
#349=CIRCLE('',#348,5.74456264653803);
#350=EDGE_CURVE('',#335,#344,#349,.T.);
#351=ORIENTED_EDGE('',*,*,#350,.T.);
#352=CARTESIAN_POINT('',(-18.498007588177568,10.806772440984565,1.85404962177391));
#353=DIRECTION('',(0.0,0.0,-1.0));
#354=DIRECTION('',(-1.0,0.0,0.0));
#355=AXIS2_PLACEMENT_3D('',#352,#353,#354);
#356=CIRCLE('',#355,6.750000000000003);
#357=EDGE_CURVE('',#324,#344,#356,.T.);
#358=ORIENTED_EDGE('',*,*,#357,.F.);
#359=EDGE_LOOP('',(#333,#342,#351,#358));
#360=FACE_OUTER_BOUND('',#359,.T.);
#361=ORIENTED_EDGE('',*,*,#313,.F.);
#362=EDGE_LOOP('',(#361));
#363=FACE_BOUND('',#362,.T.);
#364=ADVANCED_FACE('',(#360,#363),#322,.T.);
#365=CARTESIAN_POINT('',(-18.498007588177568,10.806772440984565,0.0));
#366=DIRECTION('',(0.0,0.0,1.0));
#367=DIRECTION('',(-1.0,0.0,0.0));
#368=AXIS2_PLACEMENT_3D('',#365,#366,#367);
#369=CYLINDRICAL_SURFACE('',#368,2.75);
#370=ORIENTED_EDGE('',*,*,#282,.T.);
#371=EDGE_LOOP('',(#370));
#372=FACE_OUTER_BOUND('',#371,.T.);
#373=ORIENTED_EDGE('',*,*,#302,.F.);
#374=EDGE_LOOP('',(#373));
#375=FACE_BOUND('',#374,.T.);
#376=ADVANCED_FACE('',(#372,#375),#369,.T.);
#377=CARTESIAN_POINT('',(-18.498007588177568,10.806772440984563,-1.110223E-015));
#378=DIRECTION('',(0.0,1.0,0.0));
#379=DIRECTION('',(0.0,0.0,-1.0));
#380=AXIS2_PLACEMENT_3D('',#377,#378,#379);
#381=CYLINDRICAL_SURFACE('',#380,5.400000000000001);
#382=ORIENTED_EDGE('',*,*,#152,.T.);
#383=ORIENTED_EDGE('',*,*,#190,.F.);
#384=ORIENTED_EDGE('',*,*,#114,.T.);
#385=ORIENTED_EDGE('',*,*,#217,.F.);
#386=EDGE_LOOP('',(#382,#383,#384,#385));
#387=FACE_OUTER_BOUND('',#386,.T.);
#388=ADVANCED_FACE('',(#387),#381,.F.);
#389=CARTESIAN_POINT('',(-18.498007588177568,-13.036539143667149,-1.110223E-015));
#390=DIRECTION('',(0.0,1.0,0.0));
#391=DIRECTION('',(-1.0,0.0,0.0));
#392=AXIS2_PLACEMENT_3D('',#389,#390,#391);
#393=CYLINDRICAL_SURFACE('',#392,4.0);
#394=CARTESIAN_POINT('',(-22.498007588177565,14.806772440984567,-1.110223E-015));
#395=VERTEX_POINT('',#394);
#396=CARTESIAN_POINT('',(-18.498007588177568,14.806772440984567,-1.110223E-015));
#397=DIRECTION('',(0.0,-1.0,0.0));
#398=DIRECTION('',(-1.0,0.0,0.0));
#399=AXIS2_PLACEMENT_3D('',#396,#397,#398);
#400=CIRCLE('',#399,4.0);
#401=EDGE_CURVE('',#395,#395,#400,.T.);
#402=ORIENTED_EDGE('',*,*,#401,.F.);
#403=EDGE_LOOP('',(#402));
#404=FACE_OUTER_BOUND('',#403,.T.);
#405=ORIENTED_EDGE('',*,*,#207,.T.);
#406=EDGE_LOOP('',(#405));
#407=FACE_BOUND('',#406,.T.);
#408=ADVANCED_FACE('',(#404,#407),#393,.F.);
#409=CARTESIAN_POINT('',(-18.498007588177568,-13.036539143667149,-1.110223E-015));
#410=DIRECTION('',(0.0,1.0,0.0));
#411=DIRECTION('',(-1.0,0.0,0.0));
#412=AXIS2_PLACEMENT_3D('',#409,#410,#411);
#413=CYLINDRICAL_SURFACE('',#412,4.0);
#414=ORIENTED_EDGE('',*,*,#180,.T.);
#415=EDGE_LOOP('',(#414));
#416=FACE_OUTER_BOUND('',#415,.T.);
#417=CARTESIAN_POINT('',(-14.498007588177568,6.806772440984563,-1.600082E-015));
#418=VERTEX_POINT('',#417);
#419=CARTESIAN_POINT('',(-18.498007588177568,6.806772440984563,-1.110223E-015));
#420=DIRECTION('',(0.0,1.0,0.0));
#421=DIRECTION('',(-1.0,0.0,0.0));
#422=AXIS2_PLACEMENT_3D('',#419,#420,#421);
#423=CIRCLE('',#422,4.0);
#424=EDGE_CURVE('',#418,#418,#423,.T.);
#425=ORIENTED_EDGE('',*,*,#424,.F.);
#426=EDGE_LOOP('',(#425));
#427=FACE_BOUND('',#426,.T.);
#428=ADVANCED_FACE('',(#416,#427),#413,.F.);
#429=CARTESIAN_POINT('',(-23.935148380910455,14.806772440984567,16.0));
#430=DIRECTION('',(0.0,-1.0,0.0));
#431=DIRECTION('',(0.0,0.0,-1.0));
#432=AXIS2_PLACEMENT_3D('',#429,#430,#431);
#433=PLANE('',#432);
#434=ORIENTED_EDGE('',*,*,#332,.F.);
#435=CARTESIAN_POINT('',(-13.060866795444678,14.806772440984567,-1.85404962177391));
#436=VERTEX_POINT('',#435);
#437=CARTESIAN_POINT('',(-13.060866795444683,14.806772440984567,-1.85404962177391));
#438=DIRECTION('',(0.0,0.0,1.0));
#439=VECTOR('',#438,3.708099243547819);
#440=LINE('',#437,#439);
#441=EDGE_CURVE('',#436,#324,#440,.T.);
#442=ORIENTED_EDGE('',*,*,#441,.F.);
#443=CARTESIAN_POINT('',(-23.935148380910455,14.806772440984567,-1.85404962177391));
#444=VERTEX_POINT('',#443);
#445=CARTESIAN_POINT('',(-18.498007588177568,14.806772440984567,0.0));
#446=DIRECTION('',(0.0,-1.0,0.0));
#447=DIRECTION('',(0.0,0.0,1.0));
#448=AXIS2_PLACEMENT_3D('',#445,#446,#447);
#449=CIRCLE('',#448,5.744562646538029);
#450=EDGE_CURVE('',#444,#436,#449,.T.);
#451=ORIENTED_EDGE('',*,*,#450,.F.);
#452=CARTESIAN_POINT('',(-23.935148380910451,14.806772440984567,1.854049621773909));
#453=DIRECTION('',(0.0,0.0,-1.0));
#454=VECTOR('',#453,3.708099243547819);
#455=LINE('',#452,#454);
#456=EDGE_CURVE('',#326,#444,#455,.T.);
#457=ORIENTED_EDGE('',*,*,#456,.F.);
#458=EDGE_LOOP('',(#434,#442,#451,#457));
#459=FACE_OUTER_BOUND('',#458,.T.);
#460=ORIENTED_EDGE('',*,*,#401,.T.);
#461=EDGE_LOOP('',(#460));
#462=FACE_BOUND('',#461,.T.);
#463=ADVANCED_FACE('',(#459,#462),#433,.F.);
#464=CARTESIAN_POINT('',(-13.060866795444678,6.806772440984564,16.0));
#465=DIRECTION('',(0.0,1.0,0.0));
#466=DIRECTION('',(0.0,0.0,1.0));
#467=AXIS2_PLACEMENT_3D('',#464,#465,#466);
#468=PLANE('',#467);
#469=ORIENTED_EDGE('',*,*,#350,.F.);
#470=CARTESIAN_POINT('',(-23.935148380910455,6.806772440984564,-1.854049621773912));
#471=VERTEX_POINT('',#470);
#472=CARTESIAN_POINT('',(-23.935148380910451,6.806772440984564,-1.854049621773914));
#473=DIRECTION('',(0.0,0.0,1.0));
#474=VECTOR('',#473,3.708099243547824);
#475=LINE('',#472,#474);
#476=EDGE_CURVE('',#471,#335,#475,.T.);
#477=ORIENTED_EDGE('',*,*,#476,.F.);
#478=CARTESIAN_POINT('',(-13.060866795444678,6.806772440984564,-1.854049621773912));
#479=VERTEX_POINT('',#478);
#480=CARTESIAN_POINT('',(-18.498007588177568,6.806772440984564,0.0));
#481=DIRECTION('',(0.0,1.0,0.0));
#482=DIRECTION('',(0.0,0.0,-1.0));
#483=AXIS2_PLACEMENT_3D('',#480,#481,#482);
#484=CIRCLE('',#483,5.74456264653803);
#485=EDGE_CURVE('',#479,#471,#484,.T.);
#486=ORIENTED_EDGE('',*,*,#485,.F.);
#487=CARTESIAN_POINT('',(-13.060866795444682,6.806772440984564,1.85404962177391));
#488=DIRECTION('',(0.0,0.0,-1.0));
#489=VECTOR('',#488,3.708099243547824);
#490=LINE('',#487,#489);
#491=EDGE_CURVE('',#344,#479,#490,.T.);
#492=ORIENTED_EDGE('',*,*,#491,.F.);
#493=EDGE_LOOP('',(#469,#477,#486,#492));
#494=FACE_OUTER_BOUND('',#493,.T.);
#495=ORIENTED_EDGE('',*,*,#424,.T.);
#496=EDGE_LOOP('',(#495));
#497=FACE_BOUND('',#496,.T.);
#498=ADVANCED_FACE('',(#494,#497),#468,.F.);
#499=CARTESIAN_POINT('',(-18.498007588177568,10.806772440984565,16.0));
#500=DIRECTION('',(0.0,0.0,-1.0));
#501=DIRECTION('',(-1.0,0.0,0.0));
#502=AXIS2_PLACEMENT_3D('',#499,#500,#501);
#503=CYLINDRICAL_SURFACE('',#502,6.75);
#504=ORIENTED_EDGE('',*,*,#456,.T.);
#505=CARTESIAN_POINT('',(-18.498007588177568,10.806772440984565,-1.85404962177391));
#506=DIRECTION('',(0.0,0.0,1.0));
#507=DIRECTION('',(-1.0,0.0,0.0));
#508=AXIS2_PLACEMENT_3D('',#505,#506,#507);
#509=CIRCLE('',#508,6.750000000000003);
#510=EDGE_CURVE('',#444,#471,#509,.T.);
#511=ORIENTED_EDGE('',*,*,#510,.T.);
#512=ORIENTED_EDGE('',*,*,#476,.T.);
#513=ORIENTED_EDGE('',*,*,#341,.T.);
#514=EDGE_LOOP('',(#504,#511,#512,#513));
#515=FACE_OUTER_BOUND('',#514,.T.);
#516=ADVANCED_FACE('',(#515),#503,.T.);
#517=CARTESIAN_POINT('',(-18.498007588177568,10.806772440984565,0.0));
#518=DIRECTION('',(0.0,0.0,1.0));
#519=DIRECTION('',(1.0,0.0,0.0));
#520=AXIS2_PLACEMENT_3D('',#517,#518,#519);
#521=SPHERICAL_SURFACE('',#520,7.000000000000001);
#522=ORIENTED_EDGE('',*,*,#450,.T.);
#523=CARTESIAN_POINT('',(-18.498007588177568,10.806772440984565,-1.85404962177391));
#524=DIRECTION('',(0.0,0.0,1.0));
#525=DIRECTION('',(-1.0,0.0,0.0));
#526=AXIS2_PLACEMENT_3D('',#523,#524,#525);
#527=CIRCLE('',#526,6.750000000000003);
#528=EDGE_CURVE('',#479,#436,#527,.T.);
#529=ORIENTED_EDGE('',*,*,#528,.F.);
#530=ORIENTED_EDGE('',*,*,#485,.T.);
#531=ORIENTED_EDGE('',*,*,#510,.F.);
#532=EDGE_LOOP('',(#522,#529,#530,#531));
#533=FACE_OUTER_BOUND('',#532,.T.);
#534=ADVANCED_FACE('',(#533),#521,.T.);
#535=CARTESIAN_POINT('',(-18.498007588177568,10.806772440984565,7.526822262515797));
#536=DIRECTION('',(0.0,0.0,1.0));
#537=DIRECTION('',(1.0,0.0,0.0));
#538=AXIS2_PLACEMENT_3D('',#535,#536,#537);
#539=CONICAL_SURFACE('',#538,0.7875,59.000000000000007);
#540=ORIENTED_EDGE('',*,*,#163,.T.);
#541=EDGE_LOOP('',(#540));
#542=FACE_OUTER_BOUND('',#541,.T.);
#543=ORIENTED_EDGE('',*,*,#262,.T.);
#544=EDGE_LOOP('',(#543));
#545=FACE_BOUND('',#544,.T.);
#546=ADVANCED_FACE('',(#542,#545),#539,.F.);
#547=CARTESIAN_POINT('',(-18.498007588177568,10.806772440984565,16.0));
#548=DIRECTION('',(0.0,0.0,-1.0));
#549=DIRECTION('',(-1.0,0.0,0.0));
#550=AXIS2_PLACEMENT_3D('',#547,#548,#549);
#551=CYLINDRICAL_SURFACE('',#550,6.75);
#552=ORIENTED_EDGE('',*,*,#441,.T.);
#553=ORIENTED_EDGE('',*,*,#357,.T.);
#554=ORIENTED_EDGE('',*,*,#491,.T.);
#555=ORIENTED_EDGE('',*,*,#528,.T.);
#556=EDGE_LOOP('',(#552,#553,#554,#555));
#557=FACE_OUTER_BOUND('',#556,.T.);
#558=ADVANCED_FACE('',(#557),#551,.T.);
#559=CLOSED_SHELL('',(#167,#194,#221,#249,#269,#289,#317,#364,#376,#388,#408,#428,#463,#498,#516,#534,#546,#558));
#560=MANIFOLD_SOLID_BREP('T\X2\011B\X0\leso1',#559);
#561=COLOUR_RGB('Kov-Ocel',0.639216005802155,0.639216005802155,0.686275005340576);
#562=FILL_AREA_STYLE_COLOUR('Kov-Ocel',#561);
#563=FILL_AREA_STYLE('Kov-Ocel',(#562));
#564=SURFACE_STYLE_FILL_AREA(#563);
#565=SURFACE_SIDE_STYLE('Kov-Ocel',(#564));
#566=SURFACE_STYLE_USAGE(.BOTH.,#565);
#567=PRESENTATION_STYLE_ASSIGNMENT((#566));
#568=STYLED_ITEM('',(#567),#560);
#569=MECHANICAL_DESIGN_GEOMETRIC_PRESENTATION_REPRESENTATION('',(#568),#36);
#570=ADVANCED_BREP_SHAPE_REPRESENTATION('ABSR',(#560),#36);
#571=SHAPE_REPRESENTATION_RELATIONSHIP('SRR','None',#570,#41);
ENDSEC;
END-ISO-10303-21;
