ISO-10303-21;
HEADER;
/****************************************************************
 * Generated by software with PDElib inside                    *
 * PDElib Version v51a, created Wed 07/06/2011                  *
 * ITI Transcendata (http://www.transcendata.com/)              *
 ****************************************************************/
FILE_DESCRIPTION((''),'2;1');
FILE_NAME('j:\\prilohy\\modely\\738108.stp','2014-09-05T14:08:29',(''),('KNOMI spol. s r. o.'),'Autodesk Inventor 2012','Autodesk Inventor 2012','');
FILE_SCHEMA(('AUTOMOTIVE_DESIGN { 1 2 10303 214 0 1 1 1 }'));
ENDSEC;
DATA;
#5=APPLICATION_CONTEXT('automotive design');
#6=APPLICATION_PROTOCOL_DEFINITION('Draft International Standard','automotive_design',1998,#5);
#7=PRODUCT_CONTEXT('None',#5,'mechanical');
#8=PRODUCT('T\X2\011B\X0\sn\X2\011B\X0\n\S\m USIT  M8   8','T\X2\011B\X0\sn\X2\011B\X0\n\S\m USIT  M8   8','None',(#7));
#9=PRODUCT_RELATED_PRODUCT_CATEGORY('part','description',(#8));
#10=PRODUCT_DEFINITION_FORMATION('None','None',#8);
#11=PRODUCT_DEFINITION_CONTEXT('part definition',#5,'design');
#12=PRODUCT_DEFINITION('None','None',#10,#11);
#18=(NAMED_UNIT(*)PLANE_ANGLE_UNIT()SI_UNIT($,.RADIAN.));
#19=DIMENSIONAL_EXPONENTS(0.0,0.0,0.0,0.0,0.0,0.0,0.0);
#20=PLANE_ANGLE_MEASURE_WITH_UNIT(PLANE_ANGLE_MEASURE(0.0174532925),#18);
#24=(CONVERSION_BASED_UNIT('DEGREE',#20)NAMED_UNIT(#19)PLANE_ANGLE_UNIT());
#28=(NAMED_UNIT(*)SI_UNIT($,.STERADIAN.)SOLID_ANGLE_UNIT());
#32=(LENGTH_UNIT()NAMED_UNIT(*)SI_UNIT(.MILLI.,.METRE.));
#34=UNCERTAINTY_MEASURE_WITH_UNIT(LENGTH_MEASURE(0.01),#32,'DISTANCE_ACCURACY_VALUE','');
#36=(GEOMETRIC_REPRESENTATION_CONTEXT(3)GLOBAL_UNCERTAINTY_ASSIGNED_CONTEXT((#34))GLOBAL_UNIT_ASSIGNED_CONTEXT((#24,#28,#32))REPRESENTATION_CONTEXT('None','None'));
#37=AXIS2_PLACEMENT_3D('',#38,#39,#40);
#38=CARTESIAN_POINT('',(0.0,0.0,0.0));
#39=DIRECTION('',(0.0,0.0,1.0));
#40=DIRECTION('',(1.0,0.0,0.0));
#41=SHAPE_REPRESENTATION('',(#37),#36);
#42=PRODUCT_DEFINITION_SHAPE('','',#12);
#43=SHAPE_DEFINITION_REPRESENTATION(#42,#41);
#49=(NAMED_UNIT(*)PLANE_ANGLE_UNIT()SI_UNIT($,.RADIAN.));
#50=DIMENSIONAL_EXPONENTS(0.0,0.0,0.0,0.0,0.0,0.0,0.0);
#51=PLANE_ANGLE_MEASURE_WITH_UNIT(PLANE_ANGLE_MEASURE(0.0174532925),#49);
#55=(CONVERSION_BASED_UNIT('DEGREE',#51)NAMED_UNIT(#50)PLANE_ANGLE_UNIT());
#59=(NAMED_UNIT(*)SI_UNIT($,.STERADIAN.)SOLID_ANGLE_UNIT());
#63=(LENGTH_UNIT()NAMED_UNIT(*)SI_UNIT(.MILLI.,.METRE.));
#65=UNCERTAINTY_MEASURE_WITH_UNIT(LENGTH_MEASURE(0.000001),#63,'DISTANCE_ACCURACY_VALUE','');
#67=(GEOMETRIC_REPRESENTATION_CONTEXT(3)GLOBAL_UNCERTAINTY_ASSIGNED_CONTEXT((#65))GLOBAL_UNIT_ASSIGNED_CONTEXT((#55,#59,#63))REPRESENTATION_CONTEXT('','3D'));
#68=CARTESIAN_POINT('',(0.0,0.0,0.0));
#69=DIRECTION('',(1.0,0.0,0.0));
#70=DIRECTION('',(0.0,1.0,0.0));
#71=AXIS2_PLACEMENT_3D('',#68,#69,#70);
#72=CYLINDRICAL_SURFACE('',#71,6.5);
#73=CARTESIAN_POINT('',(0.5,6.5,0.0));
#74=VERTEX_POINT('',#73);
#75=CARTESIAN_POINT('',(0.5,0.0,0.0));
#76=DIRECTION('',(1.0,0.0,0.0));
#77=DIRECTION('',(0.0,1.0,0.0));
#78=AXIS2_PLACEMENT_3D('',#75,#76,#77);
#79=CIRCLE('',#78,6.5);
#80=EDGE_CURVE('',#74,#74,#79,.T.);
#81=ORIENTED_EDGE('',*,*,#80,.F.);
#82=EDGE_LOOP('',(#81));
#83=FACE_OUTER_BOUND('',#82,.T.);
#84=CARTESIAN_POINT('',(-0.5,6.5,0.0));
#85=VERTEX_POINT('',#84);
#86=CARTESIAN_POINT('',(-0.5,0.0,0.0));
#87=DIRECTION('',(1.0,0.0,0.0));
#88=DIRECTION('',(0.0,1.0,0.0));
#89=AXIS2_PLACEMENT_3D('',#86,#87,#88);
#90=CIRCLE('',#89,6.5);
#91=EDGE_CURVE('',#85,#85,#90,.T.);
#92=ORIENTED_EDGE('',*,*,#91,.T.);
#93=EDGE_LOOP('',(#92));
#94=FACE_BOUND('',#93,.T.);
#95=ADVANCED_FACE('',(#83,#94),#72,.T.);
#96=CARTESIAN_POINT('',(0.5,5.75,0.0));
#97=DIRECTION('',(1.0,0.0,0.0));
#98=DIRECTION('',(0.0,0.0,-1.0));
#99=AXIS2_PLACEMENT_3D('',#96,#97,#98);
#100=PLANE('',#99);
#101=ORIENTED_EDGE('',*,*,#80,.T.);
#102=EDGE_LOOP('',(#101));
#103=FACE_OUTER_BOUND('',#102,.T.);
#104=CARTESIAN_POINT('',(0.5,5.0,0.0));
#105=VERTEX_POINT('',#104);
#106=CARTESIAN_POINT('',(0.5,0.0,0.0));
#107=DIRECTION('',(1.0,0.0,0.0));
#108=DIRECTION('',(0.0,1.0,0.0));
#109=AXIS2_PLACEMENT_3D('',#106,#107,#108);
#110=CIRCLE('',#109,5.0);
#111=EDGE_CURVE('',#105,#105,#110,.T.);
#112=ORIENTED_EDGE('',*,*,#111,.F.);
#113=EDGE_LOOP('',(#112));
#114=FACE_BOUND('',#113,.T.);
#115=ADVANCED_FACE('',(#103,#114),#100,.T.);
#116=CARTESIAN_POINT('',(-0.5,5.75,0.0));
#117=DIRECTION('',(-1.0,0.0,0.0));
#118=DIRECTION('',(0.0,0.0,1.0));
#119=AXIS2_PLACEMENT_3D('',#116,#117,#118);
#120=PLANE('',#119);
#121=ORIENTED_EDGE('',*,*,#91,.F.);
#122=EDGE_LOOP('',(#121));
#123=FACE_OUTER_BOUND('',#122,.T.);
#124=CARTESIAN_POINT('',(-0.5,5.0,0.0));
#125=VERTEX_POINT('',#124);
#126=CARTESIAN_POINT('',(-0.5,0.0,0.0));
#127=DIRECTION('',(1.0,0.0,0.0));
#128=DIRECTION('',(0.0,1.0,0.0));
#129=AXIS2_PLACEMENT_3D('',#126,#127,#128);
#130=CIRCLE('',#129,5.0);
#131=EDGE_CURVE('',#125,#125,#130,.T.);
#132=ORIENTED_EDGE('',*,*,#131,.T.);
#133=EDGE_LOOP('',(#132));
#134=FACE_BOUND('',#133,.T.);
#135=ADVANCED_FACE('',(#123,#134),#120,.T.);
#136=CARTESIAN_POINT('',(-0.65,0.0,0.0));
#137=DIRECTION('',(1.0,0.0,0.0));
#138=DIRECTION('',(0.0,1.0,0.0));
#139=AXIS2_PLACEMENT_3D('',#136,#137,#138);
#140=CONICAL_SURFACE('',#139,4.675000000000001,65.224859431168042);
#141=ORIENTED_EDGE('',*,*,#131,.F.);
#142=EDGE_LOOP('',(#141));
#143=FACE_OUTER_BOUND('',#142,.T.);
#144=CARTESIAN_POINT('',(-0.8,4.350000000000001,0.0));
#145=VERTEX_POINT('',#144);
#146=CARTESIAN_POINT('',(-0.8,0.0,0.0));
#147=DIRECTION('',(1.0,0.0,0.0));
#148=DIRECTION('',(0.0,1.0,0.0));
#149=AXIS2_PLACEMENT_3D('',#146,#147,#148);
#150=CIRCLE('',#149,4.350000000000001);
#151=EDGE_CURVE('',#145,#145,#150,.T.);
#152=ORIENTED_EDGE('',*,*,#151,.T.);
#153=EDGE_LOOP('',(#152));
#154=FACE_BOUND('',#153,.T.);
#155=ADVANCED_FACE('',(#143,#154),#140,.T.);
#156=CARTESIAN_POINT('',(0.65,0.0,0.0));
#157=DIRECTION('',(-1.0,0.0,0.0));
#158=DIRECTION('',(0.0,1.0,0.0));
#159=AXIS2_PLACEMENT_3D('',#156,#157,#158);
#160=CONICAL_SURFACE('',#159,4.675000000000001,65.224859431168042);
#161=CARTESIAN_POINT('',(0.8,4.350000000000001,0.0));
#162=VERTEX_POINT('',#161);
#163=CARTESIAN_POINT('',(0.8,0.0,0.0));
#164=DIRECTION('',(1.0,0.0,0.0));
#165=DIRECTION('',(0.0,1.0,0.0));
#166=AXIS2_PLACEMENT_3D('',#163,#164,#165);
#167=CIRCLE('',#166,4.350000000000001);
#168=EDGE_CURVE('',#162,#162,#167,.T.);
#169=ORIENTED_EDGE('',*,*,#168,.F.);
#170=EDGE_LOOP('',(#169));
#171=FACE_OUTER_BOUND('',#170,.T.);
#172=ORIENTED_EDGE('',*,*,#111,.T.);
#173=EDGE_LOOP('',(#172));
#174=FACE_BOUND('',#173,.T.);
#175=ADVANCED_FACE('',(#171,#174),#160,.T.);
#176=CARTESIAN_POINT('',(0.0,0.0,0.0));
#177=DIRECTION('',(1.0,0.0,0.0));
#178=DIRECTION('',(0.0,1.0,0.0));
#179=AXIS2_PLACEMENT_3D('',#176,#177,#178);
#180=CYLINDRICAL_SURFACE('',#179,4.350000000000001);
#181=ORIENTED_EDGE('',*,*,#151,.F.);
#182=EDGE_LOOP('',(#181));
#183=FACE_OUTER_BOUND('',#182,.T.);
#184=ORIENTED_EDGE('',*,*,#168,.T.);
#185=EDGE_LOOP('',(#184));
#186=FACE_BOUND('',#185,.T.);
#187=ADVANCED_FACE('',(#183,#186),#180,.F.);
#188=CLOSED_SHELL('',(#95,#115,#135,#155,#175,#187));
#189=MANIFOLD_SOLID_BREP('T\X2\011B\X0\leso1',#188);
#190=COLOUR_RGB('',0.309803992509842,0.309803992509842,0.309803992509842);
#191=FILL_AREA_STYLE_COLOUR('',#190);
#192=FILL_AREA_STYLE('',(#191));
#193=SURFACE_STYLE_FILL_AREA(#192);
#194=SURFACE_SIDE_STYLE('',(#193));
#195=SURFACE_STYLE_USAGE(.BOTH.,#194);
#196=PRESENTATION_STYLE_ASSIGNMENT((#195));
#197=STYLED_ITEM('',(#196),#155);
#198=STYLED_ITEM('',(#196),#175);
#199=STYLED_ITEM('',(#196),#187);
#200=MECHANICAL_DESIGN_GEOMETRIC_PRESENTATION_REPRESENTATION('',(#197,#198,#199,#208),#67);
#201=COLOUR_RGB('Kov-Ocel',0.639216005802155,0.639216005802155,0.686275005340576);
#202=FILL_AREA_STYLE_COLOUR('Kov-Ocel',#201);
#203=FILL_AREA_STYLE('Kov-Ocel',(#202));
#204=SURFACE_STYLE_FILL_AREA(#203);
#205=SURFACE_SIDE_STYLE('Kov-Ocel',(#204));
#206=SURFACE_STYLE_USAGE(.BOTH.,#205);
#207=PRESENTATION_STYLE_ASSIGNMENT((#206));
#208=STYLED_ITEM('',(#207),#189);
#209=ADVANCED_BREP_SHAPE_REPRESENTATION('ABSR',(#189),#36);
#210=SHAPE_REPRESENTATION_RELATIONSHIP('SRR','None',#209,#41);
#211=GROUP('N\X2\FFFDFFFD\X0\rt2',$);
#212=APPLIED_GROUP_ASSIGNMENT(#211,(#242,#281));
#218=(NAMED_UNIT(*)PLANE_ANGLE_UNIT()SI_UNIT($,.RADIAN.));
#219=DIMENSIONAL_EXPONENTS(0.0,0.0,0.0,0.0,0.0,0.0,0.0);
#220=PLANE_ANGLE_MEASURE_WITH_UNIT(PLANE_ANGLE_MEASURE(0.0174532925),#218);
#224=(CONVERSION_BASED_UNIT('DEGREE',#220)NAMED_UNIT(#219)PLANE_ANGLE_UNIT());
#228=(NAMED_UNIT(*)SI_UNIT($,.STERADIAN.)SOLID_ANGLE_UNIT());
#232=(LENGTH_UNIT()NAMED_UNIT(*)SI_UNIT(.MILLI.,.METRE.));
#234=UNCERTAINTY_MEASURE_WITH_UNIT(LENGTH_MEASURE(0.000001),#232,'DISTANCE_ACCURACY_VALUE','');
#236=(GEOMETRIC_REPRESENTATION_CONTEXT(3)GLOBAL_UNCERTAINTY_ASSIGNED_CONTEXT((#234))GLOBAL_UNIT_ASSIGNED_CONTEXT((#224,#228,#232))REPRESENTATION_CONTEXT('','3D'));
#237=CARTESIAN_POINT('',(-0.5,0.0,6.5));
#238=DIRECTION('',(1.0,0.0,0.0));
#239=VECTOR('',#238,1.0);
#240=LINE('',#237,#239);
#241=CARTESIAN_POINT('',(0.5,0.0,6.5));
#242=TRIMMED_CURVE('',#240,(PARAMETER_VALUE(0.0),#237),(PARAMETER_VALUE(1.0),#241),.T.,.PARAMETER.);
#243=COLOUR_RGB('',1.0,1.0,0.0);
#244=DRAUGHTING_PRE_DEFINED_CURVE_FONT('continuous');
#245=CURVE_STYLE('',#244,POSITIVE_LENGTH_MEASURE(0.1),#243);
#246=PRESENTATION_STYLE_ASSIGNMENT((#245));
#247=STYLED_ITEM('',(#246),#242);
#248=MECHANICAL_DESIGN_GEOMETRIC_PRESENTATION_REPRESENTATION('',(#247),#236);
#249=GEOMETRIC_SET('GEOSET',(#242,#281));
#250=GEOMETRICALLY_BOUNDED_SURFACE_SHAPE_REPRESENTATION('GBSSR',(#249),#36);
#251=SHAPE_REPRESENTATION_RELATIONSHIP('SRR','None',#250,#41);
#257=(NAMED_UNIT(*)PLANE_ANGLE_UNIT()SI_UNIT($,.RADIAN.));
#258=DIMENSIONAL_EXPONENTS(0.0,0.0,0.0,0.0,0.0,0.0,0.0);
#259=PLANE_ANGLE_MEASURE_WITH_UNIT(PLANE_ANGLE_MEASURE(0.0174532925),#257);
#263=(CONVERSION_BASED_UNIT('DEGREE',#259)NAMED_UNIT(#258)PLANE_ANGLE_UNIT());
#267=(NAMED_UNIT(*)SI_UNIT($,.STERADIAN.)SOLID_ANGLE_UNIT());
#271=(LENGTH_UNIT()NAMED_UNIT(*)SI_UNIT(.MILLI.,.METRE.));
#273=UNCERTAINTY_MEASURE_WITH_UNIT(LENGTH_MEASURE(0.000001),#271,'DISTANCE_ACCURACY_VALUE','');
#275=(GEOMETRIC_REPRESENTATION_CONTEXT(3)GLOBAL_UNCERTAINTY_ASSIGNED_CONTEXT((#273))GLOBAL_UNIT_ASSIGNED_CONTEXT((#263,#267,#271))REPRESENTATION_CONTEXT('','3D'));
#276=CARTESIAN_POINT('',(-0.5,0.0,-6.5));
#277=DIRECTION('',(1.0,0.0,0.0));
#278=VECTOR('',#277,1.0);
#279=LINE('',#276,#278);
#280=CARTESIAN_POINT('',(0.5,0.0,-6.5));
#281=TRIMMED_CURVE('',#279,(PARAMETER_VALUE(0.0),#276),(PARAMETER_VALUE(1.0),#280),.T.,.PARAMETER.);
#282=STYLED_ITEM('',(#246),#281);
#283=MECHANICAL_DESIGN_GEOMETRIC_PRESENTATION_REPRESENTATION('',(#282),#275);
ENDSEC;
END-ISO-10303-21;
