ISO-10303-21;
HEADER;
/****************************************************************
 * Generated by software with PDElib inside                    *
 * PDElib Version v51a, created Wed 07/06/2011                  *
 * ITI Transcendata (http://www.transcendata.com/)              *
 ****************************************************************/
FILE_DESCRIPTION((''),'2;1');
FILE_NAME('j:\\prilohy\\modely\\6511008.stp','2014-09-10T09:34:58',(''),('KNOMI spol. s r. o.'),'Autodesk Inventor 2012','Autodesk Inventor 2012','');
FILE_SCHEMA(('AUTOMOTIVE_DESIGN { 1 2 10303 214 0 1 1 1 }'));
ENDSEC;
DATA;
#5=APPLICATION_CONTEXT('automotive design');
#6=APPLICATION_PROTOCOL_DEFINITION('Draft International Standard','automotive_design',1998,#5);
#7=PRODUCT_CONTEXT('None',#5,'mechanical');
#8=PRODUCT('T\X2\011B\X0\sn\S\mc\S\m ku\X2\017E\X0\el let.tr','T\X2\011B\X0\sn\S\mc\S\m ku\X2\017E\X0\el let.tr','None',(#7));
#9=PRODUCT_RELATED_PRODUCT_CATEGORY('part','description',(#8));
#10=PRODUCT_DEFINITION_FORMATION('None','None',#8);
#11=PRODUCT_DEFINITION_CONTEXT('part definition',#5,'design');
#12=PRODUCT_DEFINITION('None','None',#10,#11);
#18=(NAMED_UNIT(*)PLANE_ANGLE_UNIT()SI_UNIT($,.RADIAN.));
#19=DIMENSIONAL_EXPONENTS(0.0,0.0,0.0,0.0,0.0,0.0,0.0);
#20=PLANE_ANGLE_MEASURE_WITH_UNIT(PLANE_ANGLE_MEASURE(0.0174532925),#18);
#24=(CONVERSION_BASED_UNIT('DEGREE',#20)NAMED_UNIT(#19)PLANE_ANGLE_UNIT());
#28=(NAMED_UNIT(*)SI_UNIT($,.STERADIAN.)SOLID_ANGLE_UNIT());
#32=(LENGTH_UNIT()NAMED_UNIT(*)SI_UNIT(.MILLI.,.METRE.));
#34=UNCERTAINTY_MEASURE_WITH_UNIT(LENGTH_MEASURE(0.01),#32,'DISTANCE_ACCURACY_VALUE','');
#36=(GEOMETRIC_REPRESENTATION_CONTEXT(3)GLOBAL_UNCERTAINTY_ASSIGNED_CONTEXT((#34))GLOBAL_UNIT_ASSIGNED_CONTEXT((#24,#28,#32))REPRESENTATION_CONTEXT('None','None'));
#37=AXIS2_PLACEMENT_3D('',#38,#39,#40);
#38=CARTESIAN_POINT('',(0.0,0.0,0.0));
#39=DIRECTION('',(0.0,0.0,1.0));
#40=DIRECTION('',(1.0,0.0,0.0));
#41=SHAPE_REPRESENTATION('',(#37),#36);
#42=PRODUCT_DEFINITION_SHAPE('','',#12);
#43=SHAPE_DEFINITION_REPRESENTATION(#42,#41);
#49=(NAMED_UNIT(*)PLANE_ANGLE_UNIT()SI_UNIT($,.RADIAN.));
#50=DIMENSIONAL_EXPONENTS(0.0,0.0,0.0,0.0,0.0,0.0,0.0);
#51=PLANE_ANGLE_MEASURE_WITH_UNIT(PLANE_ANGLE_MEASURE(0.0174532925),#49);
#55=(CONVERSION_BASED_UNIT('DEGREE',#51)NAMED_UNIT(#50)PLANE_ANGLE_UNIT());
#59=(NAMED_UNIT(*)SI_UNIT($,.STERADIAN.)SOLID_ANGLE_UNIT());
#63=(LENGTH_UNIT()NAMED_UNIT(*)SI_UNIT(.MILLI.,.METRE.));
#65=UNCERTAINTY_MEASURE_WITH_UNIT(LENGTH_MEASURE(0.000001),#63,'DISTANCE_ACCURACY_VALUE','');
#67=(GEOMETRIC_REPRESENTATION_CONTEXT(3)GLOBAL_UNCERTAINTY_ASSIGNED_CONTEXT((#65))GLOBAL_UNIT_ASSIGNED_CONTEXT((#55,#59,#63))REPRESENTATION_CONTEXT('','3D'));
#68=CARTESIAN_POINT('',(0.0,0.0,13.900000000000002));
#69=DIRECTION('',(0.0,0.0,1.0));
#70=DIRECTION('',(-1.0,0.0,0.0));
#71=AXIS2_PLACEMENT_3D('',#68,#69,#70);
#72=CONICAL_SURFACE('',#71,4.100000000000001,45.000000000000007);
#73=CARTESIAN_POINT('',(4.0,-4.898587E-016,13.800000000000001));
#74=VERTEX_POINT('',#73);
#75=CARTESIAN_POINT('',(0.0,0.0,13.800000000000001));
#76=DIRECTION('',(0.0,0.0,-1.0));
#77=DIRECTION('',(-1.0,0.0,0.0));
#78=AXIS2_PLACEMENT_3D('',#75,#76,#77);
#79=CIRCLE('',#78,4.0);
#80=EDGE_CURVE('',#74,#74,#79,.T.);
#81=ORIENTED_EDGE('',*,*,#80,.T.);
#82=EDGE_LOOP('',(#81));
#83=FACE_OUTER_BOUND('',#82,.T.);
#84=CARTESIAN_POINT('',(4.2,5.143517E-016,14.000000000000002));
#85=VERTEX_POINT('',#84);
#86=CARTESIAN_POINT('',(0.0,0.0,14.000000000000002));
#87=DIRECTION('',(0.0,0.0,1.0));
#88=DIRECTION('',(-1.0,0.0,0.0));
#89=AXIS2_PLACEMENT_3D('',#86,#87,#88);
#90=CIRCLE('',#89,4.2);
#91=EDGE_CURVE('',#85,#85,#90,.T.);
#92=ORIENTED_EDGE('',*,*,#91,.T.);
#93=EDGE_LOOP('',(#92));
#94=FACE_BOUND('',#93,.T.);
#95=ADVANCED_FACE('',(#83,#94),#72,.F.);
#96=CARTESIAN_POINT('',(0.0,0.0,-10.248711305964282));
#97=DIRECTION('',(0.0,0.0,1.0));
#98=DIRECTION('',(1.0,0.0,0.0));
#99=AXIS2_PLACEMENT_3D('',#96,#97,#98);
#100=CYLINDRICAL_SURFACE('',#99,4.0);
#101=CARTESIAN_POINT('',(-4.0,4.898587E-016,7.620651539378849));
#102=VERTEX_POINT('',#101);
#103=CARTESIAN_POINT('',(0.0,0.0,7.620651539378849));
#104=DIRECTION('',(0.0,0.0,-1.0));
#105=DIRECTION('',(1.0,0.0,0.0));
#106=AXIS2_PLACEMENT_3D('',#103,#104,#105);
#107=CIRCLE('',#106,4.0);
#108=EDGE_CURVE('',#102,#102,#107,.T.);
#109=ORIENTED_EDGE('',*,*,#108,.T.);
#110=EDGE_LOOP('',(#109));
#111=FACE_OUTER_BOUND('',#110,.T.);
#112=ORIENTED_EDGE('',*,*,#80,.F.);
#113=EDGE_LOOP('',(#112));
#114=FACE_BOUND('',#113,.T.);
#115=ADVANCED_FACE('',(#111,#114),#100,.F.);
#116=CARTESIAN_POINT('',(0.0,0.0,14.000000000000002));
#117=DIRECTION('',(0.0,0.0,-1.0));
#118=DIRECTION('',(-1.0,0.0,0.0));
#119=AXIS2_PLACEMENT_3D('',#116,#117,#118);
#120=PLANE('',#119);
#121=CARTESIAN_POINT('',(-4.350000000000001,2.663607E-016,14.000000000000002));
#122=VERTEX_POINT('',#121);
#123=CARTESIAN_POINT('',(0.0,0.0,14.000000000000002));
#124=DIRECTION('',(0.0,0.0,1.0));
#125=DIRECTION('',(1.0,0.0,0.0));
#126=AXIS2_PLACEMENT_3D('',#123,#124,#125);
#127=CIRCLE('',#126,4.350000000000001);
#128=EDGE_CURVE('',#122,#122,#127,.T.);
#129=ORIENTED_EDGE('',*,*,#128,.T.);
#130=EDGE_LOOP('',(#129));
#131=FACE_OUTER_BOUND('',#130,.T.);
#132=ORIENTED_EDGE('',*,*,#91,.F.);
#133=EDGE_LOOP('',(#132));
#134=FACE_BOUND('',#133,.T.);
#135=ADVANCED_FACE('',(#131,#134),#120,.F.);
#136=CARTESIAN_POINT('',(0.0,0.0,0.25));
#137=DIRECTION('',(0.0,0.0,-1.0));
#138=DIRECTION('',(1.0,0.0,0.0));
#139=AXIS2_PLACEMENT_3D('',#136,#137,#138);
#140=CONICAL_SURFACE('',#139,5.325000000000001,45.000000000000043);
#141=CARTESIAN_POINT('',(-5.075000000000001,-6.215083E-016,0.5));
#142=VERTEX_POINT('',#141);
#143=CARTESIAN_POINT('',(0.0,0.0,0.5));
#144=DIRECTION('',(0.0,0.0,1.0));
#145=DIRECTION('',(1.0,0.0,0.0));
#146=AXIS2_PLACEMENT_3D('',#143,#144,#145);
#147=CIRCLE('',#146,5.075000000000001);
#148=EDGE_CURVE('',#142,#142,#147,.T.);
#149=ORIENTED_EDGE('',*,*,#148,.T.);
#150=EDGE_LOOP('',(#149));
#151=FACE_OUTER_BOUND('',#150,.T.);
#152=CARTESIAN_POINT('',(-5.575000000000001,6.827406E-016,0.0));
#153=VERTEX_POINT('',#152);
#154=CARTESIAN_POINT('',(0.0,0.0,0.0));
#155=DIRECTION('',(0.0,0.0,-1.0));
#156=DIRECTION('',(1.0,0.0,0.0));
#157=AXIS2_PLACEMENT_3D('',#154,#155,#156);
#158=CIRCLE('',#157,5.575000000000001);
#159=EDGE_CURVE('',#153,#153,#158,.T.);
#160=ORIENTED_EDGE('',*,*,#159,.T.);
#161=EDGE_LOOP('',(#160));
#162=FACE_BOUND('',#161,.T.);
#163=ADVANCED_FACE('',(#151,#162),#140,.F.);
#164=CARTESIAN_POINT('',(0.0,0.0,3.5));
#165=DIRECTION('',(0.0,0.0,-1.0));
#166=DIRECTION('',(-1.0,0.0,0.0));
#167=AXIS2_PLACEMENT_3D('',#164,#165,#166);
#168=CYLINDRICAL_SURFACE('',#167,5.075000000000001);
#169=CARTESIAN_POINT('',(-5.075000000000001,0.0,7.000000000000001));
#170=VERTEX_POINT('',#169);
#171=CARTESIAN_POINT('',(0.0,0.0,7.000000000000001));
#172=DIRECTION('',(0.0,0.0,-1.0));
#173=DIRECTION('',(-1.0,0.0,0.0));
#174=AXIS2_PLACEMENT_3D('',#171,#172,#173);
#175=CIRCLE('',#174,5.075000000000001);
#176=EDGE_CURVE('',#170,#170,#175,.T.);
#177=ORIENTED_EDGE('',*,*,#176,.F.);
#178=EDGE_LOOP('',(#177));
#179=FACE_OUTER_BOUND('',#178,.T.);
#180=ORIENTED_EDGE('',*,*,#148,.F.);
#181=EDGE_LOOP('',(#180));
#182=FACE_BOUND('',#181,.T.);
#183=ADVANCED_FACE('',(#179,#182),#168,.F.);
#184=CARTESIAN_POINT('',(0.0,0.0,0.0));
#185=DIRECTION('',(0.0,0.0,-1.0));
#186=DIRECTION('',(-1.0,0.0,0.0));
#187=AXIS2_PLACEMENT_3D('',#184,#185,#186);
#188=PLANE('',#187);
#189=CARTESIAN_POINT('',(-5.875,7.194800E-016,0.0));
#190=VERTEX_POINT('',#189);
#191=CARTESIAN_POINT('',(0.0,0.0,0.0));
#192=DIRECTION('',(0.0,0.0,-1.0));
#193=DIRECTION('',(1.0,0.0,0.0));
#194=AXIS2_PLACEMENT_3D('',#191,#192,#193);
#195=CIRCLE('',#194,5.875);
#196=EDGE_CURVE('',#190,#190,#195,.T.);
#197=ORIENTED_EDGE('',*,*,#196,.T.);
#198=EDGE_LOOP('',(#197));
#199=FACE_OUTER_BOUND('',#198,.T.);
#200=ORIENTED_EDGE('',*,*,#159,.F.);
#201=EDGE_LOOP('',(#200));
#202=FACE_BOUND('',#201,.T.);
#203=ADVANCED_FACE('',(#199,#202),#188,.T.);
#204=CARTESIAN_POINT('',(0.0,0.0,8.465026308068676));
#205=DIRECTION('',(0.0,0.0,-1.0));
#206=DIRECTION('',(-1.0,0.0,0.0));
#207=AXIS2_PLACEMENT_3D('',#204,#205,#206);
#208=CONICAL_SURFACE('',#207,2.537500000000001,59.999999999999993);
#209=ORIENTED_EDGE('',*,*,#108,.F.);
#210=EDGE_LOOP('',(#209));
#211=FACE_OUTER_BOUND('',#210,.T.);
#212=ORIENTED_EDGE('',*,*,#176,.T.);
#213=EDGE_LOOP('',(#212));
#214=FACE_BOUND('',#213,.T.);
#215=ADVANCED_FACE('',(#211,#214),#208,.F.);
#216=CARTESIAN_POINT('',(0.0,0.0,12.499999999999998));
#217=DIRECTION('',(0.0,0.0,1.0));
#218=DIRECTION('',(1.0,0.0,0.0));
#219=AXIS2_PLACEMENT_3D('',#216,#217,#218);
#220=TOROIDAL_SURFACE('',#219,4.350000000000001,1.5);
#221=CARTESIAN_POINT('',(-5.790000000000002,3.545352E-016,12.919999999999998));
#222=VERTEX_POINT('',#221);
#223=CARTESIAN_POINT('',(0.0,0.0,12.919999999999998));
#224=DIRECTION('',(0.0,0.0,1.0));
#225=DIRECTION('',(-1.0,0.0,0.0));
#226=AXIS2_PLACEMENT_3D('',#223,#224,#225);
#227=CIRCLE('',#226,5.790000000000002);
#228=EDGE_CURVE('',#222,#222,#227,.T.);
#229=ORIENTED_EDGE('',*,*,#228,.T.);
#230=EDGE_LOOP('',(#229));
#231=FACE_OUTER_BOUND('',#230,.T.);
#232=ORIENTED_EDGE('',*,*,#128,.F.);
#233=EDGE_LOOP('',(#232));
#234=FACE_BOUND('',#233,.T.);
#235=ADVANCED_FACE('',(#231,#234),#220,.T.);
#236=CARTESIAN_POINT('',(-6.350000000000001,7.776507E-016,9.000000000000002));
#237=CARTESIAN_POINT('',(-6.350000000000001,7.776507E-016,10.999999999999996));
#238=CARTESIAN_POINT('',(-5.790000000000002,7.090705E-016,12.919999999999998));
#239=CARTESIAN_POINT('',(-6.349999999999999,6.35,9.000000000000002));
#240=CARTESIAN_POINT('',(-6.349999999999998,6.350000000000001,10.999999999999996));
#241=CARTESIAN_POINT('',(-5.79,5.790000000000002,12.919999999999998));
#242=CARTESIAN_POINT('',(7.776507E-016,6.350000000000001,9.000000000000002));
#243=CARTESIAN_POINT('',(7.776507E-016,6.350000000000001,10.999999999999996));
#244=CARTESIAN_POINT('',(7.090705E-016,5.790000000000002,12.919999999999998));
#245=CARTESIAN_POINT('',(6.35,6.349999999999999,9.000000000000002));
#246=CARTESIAN_POINT('',(6.350000000000001,6.349999999999998,10.999999999999996));
#247=CARTESIAN_POINT('',(5.790000000000002,5.79,12.919999999999998));
#248=CARTESIAN_POINT('',(6.350000000000001,-7.776507E-016,9.000000000000002));
#249=CARTESIAN_POINT('',(6.350000000000001,-7.776507E-016,10.999999999999996));
#250=CARTESIAN_POINT('',(5.790000000000002,-7.090705E-016,12.919999999999998));
#251=CARTESIAN_POINT('',(6.349999999999999,-6.35,9.000000000000002));
#252=CARTESIAN_POINT('',(6.349999999999998,-6.350000000000001,10.999999999999996));
#253=CARTESIAN_POINT('',(5.79,-5.790000000000002,12.919999999999998));
#254=CARTESIAN_POINT('',(-7.776507E-016,-6.350000000000001,9.000000000000002));
#255=CARTESIAN_POINT('',(-7.776507E-016,-6.350000000000001,10.999999999999996));
#256=CARTESIAN_POINT('',(-7.090705E-016,-5.790000000000002,12.919999999999998));
#257=CARTESIAN_POINT('',(-6.35,-6.349999999999999,9.000000000000002));
#258=CARTESIAN_POINT('',(-6.350000000000001,-6.349999999999998,10.999999999999996));
#259=CARTESIAN_POINT('',(-5.790000000000002,-5.79,12.919999999999998));
#260=CARTESIAN_POINT('',(-6.350000000000001,7.776507E-016,9.000000000000002));
#261=CARTESIAN_POINT('',(-6.350000000000001,7.776507E-016,10.999999999999996));
#262=CARTESIAN_POINT('',(-5.790000000000002,7.090705E-016,12.919999999999998));
#270=(BOUNDED_SURFACE()B_SPLINE_SURFACE(2,2,((#236,#239,#242,#245,#248,#251,#254,#257,#260),(#237,#240,#243,#246,#249,#252,#255,#258,#261),(#238,#241,#244,#247,#250,#253,#256,#259,#262)),.UNSPECIFIED.,.F.,.T.,.U.)B_SPLINE_SURFACE_WITH_KNOTS((3,3),(3,2,2,2,3),(0.0,0.283794109208328),(0.0,1.570796326794897,3.141592653589793,4.71238898038469,6.283185307179586),.UNSPECIFIED.)GEOMETRIC_REPRESENTATION_ITEM()RATIONAL_B_SPLINE_SURFACE(((1.0,0.707106781186548,1.0,0.707106781186548,1.0,0.707106781186548,1.0,0.707106781186548,1.0),(0.989949493661174,0.700000000000005,0.989949493661174,0.700000000000005,0.989949493661174,0.700000000000005,0.989949493661174,0.700000000000005,0.989949493661174),(1.0,0.707106781186548,1.0,0.707106781186548,1.0,0.707106781186548,1.0,0.707106781186548,1.0)))REPRESENTATION_ITEM('')SURFACE());
#271=CARTESIAN_POINT('',(6.35,7.776507E-016,9.000000000000002));
#272=VERTEX_POINT('',#271);
#273=CARTESIAN_POINT('',(0.0,0.0,9.000000000000002));
#274=DIRECTION('',(0.0,0.0,1.0));
#275=DIRECTION('',(-1.0,0.0,0.0));
#276=AXIS2_PLACEMENT_3D('',#273,#274,#275);
#277=CIRCLE('',#276,6.35);
#278=EDGE_CURVE('',#272,#272,#277,.T.);
#279=ORIENTED_EDGE('',*,*,#278,.T.);
#280=EDGE_LOOP('',(#279));
#281=FACE_OUTER_BOUND('',#280,.T.);
#282=ORIENTED_EDGE('',*,*,#228,.F.);
#283=EDGE_LOOP('',(#282));
#284=FACE_BOUND('',#283,.T.);
#285=ADVANCED_FACE('',(#281,#284),#270,.T.);
#286=CARTESIAN_POINT('',(0.0,0.0,0.0));
#287=DIRECTION('',(0.0,0.0,1.0));
#288=DIRECTION('',(1.0,0.0,0.0));
#289=AXIS2_PLACEMENT_3D('',#286,#287,#288);
#290=CYLINDRICAL_SURFACE('',#289,5.875);
#291=CARTESIAN_POINT('',(-5.875,7.194800E-016,6.000000000000001));
#292=VERTEX_POINT('',#291);
#293=CARTESIAN_POINT('',(0.0,0.0,6.000000000000001));
#294=DIRECTION('',(0.0,0.0,-1.0));
#295=DIRECTION('',(1.0,0.0,0.0));
#296=AXIS2_PLACEMENT_3D('',#293,#294,#295);
#297=CIRCLE('',#296,5.875);
#298=EDGE_CURVE('',#292,#292,#297,.T.);
#299=ORIENTED_EDGE('',*,*,#298,.T.);
#300=EDGE_LOOP('',(#299));
#301=FACE_OUTER_BOUND('',#300,.T.);
#302=ORIENTED_EDGE('',*,*,#196,.F.);
#303=EDGE_LOOP('',(#302));
#304=FACE_BOUND('',#303,.T.);
#305=ADVANCED_FACE('',(#301,#304),#290,.T.);
#306=CARTESIAN_POINT('',(0.0,0.0,6.000000000000001));
#307=DIRECTION('',(0.0,0.0,1.0));
#308=DIRECTION('',(1.0,0.0,0.0));
#309=AXIS2_PLACEMENT_3D('',#306,#307,#308);
#310=PLANE('',#309);
#311=CARTESIAN_POINT('',(-7.000000000000001,8.572528E-016,6.000000000000001));
#312=VERTEX_POINT('',#311);
#313=CARTESIAN_POINT('',(0.0,0.0,6.000000000000001));
#314=DIRECTION('',(0.0,0.0,1.0));
#315=DIRECTION('',(-1.0,0.0,0.0));
#316=AXIS2_PLACEMENT_3D('',#313,#314,#315);
#317=CIRCLE('',#316,7.000000000000001);
#318=EDGE_CURVE('',#312,#312,#317,.T.);
#319=ORIENTED_EDGE('',*,*,#318,.F.);
#320=EDGE_LOOP('',(#319));
#321=FACE_OUTER_BOUND('',#320,.T.);
#322=ORIENTED_EDGE('',*,*,#298,.F.);
#323=EDGE_LOOP('',(#322));
#324=FACE_BOUND('',#323,.T.);
#325=ADVANCED_FACE('',(#321,#324),#310,.F.);
#326=CARTESIAN_POINT('',(0.0,0.0,9.000000000000002));
#327=DIRECTION('',(0.0,0.0,-1.0));
#328=DIRECTION('',(-1.0,0.0,0.0));
#329=AXIS2_PLACEMENT_3D('',#326,#327,#328);
#330=PLANE('',#329);
#331=CARTESIAN_POINT('',(7.000000000000001,8.572528E-016,9.000000000000002));
#332=VERTEX_POINT('',#331);
#333=CARTESIAN_POINT('',(0.0,0.0,9.000000000000002));
#334=DIRECTION('',(0.0,0.0,-1.0));
#335=DIRECTION('',(-1.0,0.0,0.0));
#336=AXIS2_PLACEMENT_3D('',#333,#334,#335);
#337=CIRCLE('',#336,7.000000000000001);
#338=EDGE_CURVE('',#332,#332,#337,.T.);
#339=ORIENTED_EDGE('',*,*,#338,.F.);
#340=EDGE_LOOP('',(#339));
#341=FACE_OUTER_BOUND('',#340,.T.);
#342=ORIENTED_EDGE('',*,*,#278,.F.);
#343=EDGE_LOOP('',(#342));
#344=FACE_BOUND('',#343,.T.);
#345=ADVANCED_FACE('',(#341,#344),#330,.F.);
#346=CARTESIAN_POINT('',(0.0,0.0,0.0));
#347=DIRECTION('',(0.0,0.0,1.0));
#348=DIRECTION('',(-1.0,0.0,0.0));
#349=AXIS2_PLACEMENT_3D('',#346,#347,#348);
#350=CYLINDRICAL_SURFACE('',#349,7.000000000000001);
#351=ORIENTED_EDGE('',*,*,#318,.T.);
#352=EDGE_LOOP('',(#351));
#353=FACE_OUTER_BOUND('',#352,.T.);
#354=ORIENTED_EDGE('',*,*,#338,.T.);
#355=EDGE_LOOP('',(#354));
#356=FACE_BOUND('',#355,.T.);
#357=ADVANCED_FACE('',(#353,#356),#350,.T.);
#358=CLOSED_SHELL('',(#95,#115,#135,#163,#183,#203,#215,#235,#285,#305,#325,#345,#357));
#359=MANIFOLD_SOLID_BREP('T\X2\011B\X0\leso1',#358);
#360=COLOUR_RGB('Kov-Ocel',0.639216005802155,0.639216005802155,0.686275005340576);
#361=FILL_AREA_STYLE_COLOUR('Kov-Ocel',#360);
#362=FILL_AREA_STYLE('Kov-Ocel',(#361));
#363=SURFACE_STYLE_FILL_AREA(#362);
#364=SURFACE_SIDE_STYLE('Kov-Ocel',(#363));
#365=SURFACE_STYLE_USAGE(.BOTH.,#364);
#366=PRESENTATION_STYLE_ASSIGNMENT((#365));
#367=STYLED_ITEM('',(#366),#359);
#368=MECHANICAL_DESIGN_GEOMETRIC_PRESENTATION_REPRESENTATION('',(#367),#36);
#369=ADVANCED_BREP_SHAPE_REPRESENTATION('ABSR',(#359),#36);
#370=SHAPE_REPRESENTATION_RELATIONSHIP('SRR','None',#369,#41);
ENDSEC;
END-ISO-10303-21;
