ISO-10303-21;
HEADER;
/****************************************************************
 * Generated by software with PDElib inside                    *
 * PDElib Version v51a, created Wed 07/06/2011                  *
 * ITI Transcendata (http://www.transcendata.com/)              *
 ****************************************************************/
FILE_DESCRIPTION((''),'2;1');
FILE_NAME('j:\\prilohy\\modely\\6510503.stp','2014-09-10T09:35:13',(''),('KNOMI spol. s r. o.'),'Autodesk Inventor 2012','Autodesk Inventor 2012','');
FILE_SCHEMA(('AUTOMOTIVE_DESIGN { 1 2 10303 214 0 1 1 1 }'));
ENDSEC;
DATA;
#5=APPLICATION_CONTEXT('automotive design');
#6=APPLICATION_PROTOCOL_DEFINITION('Draft International Standard','automotive_design',1998,#5);
#7=PRODUCT_CONTEXT('None',#5,'mechanical');
#8=PRODUCT('T\X2\011B\X0\sn\S\mc\S\m ku\X2\017E\X0\el let.tr','T\X2\011B\X0\sn\S\mc\S\m ku\X2\017E\X0\el let.tr','None',(#7));
#9=PRODUCT_RELATED_PRODUCT_CATEGORY('part','description',(#8));
#10=PRODUCT_DEFINITION_FORMATION('None','None',#8);
#11=PRODUCT_DEFINITION_CONTEXT('part definition',#5,'design');
#12=PRODUCT_DEFINITION('None','None',#10,#11);
#18=(NAMED_UNIT(*)PLANE_ANGLE_UNIT()SI_UNIT($,.RADIAN.));
#19=DIMENSIONAL_EXPONENTS(0.0,0.0,0.0,0.0,0.0,0.0,0.0);
#20=PLANE_ANGLE_MEASURE_WITH_UNIT(PLANE_ANGLE_MEASURE(0.0174532925),#18);
#24=(CONVERSION_BASED_UNIT('DEGREE',#20)NAMED_UNIT(#19)PLANE_ANGLE_UNIT());
#28=(NAMED_UNIT(*)SI_UNIT($,.STERADIAN.)SOLID_ANGLE_UNIT());
#32=(LENGTH_UNIT()NAMED_UNIT(*)SI_UNIT(.MILLI.,.METRE.));
#34=UNCERTAINTY_MEASURE_WITH_UNIT(LENGTH_MEASURE(0.01),#32,'DISTANCE_ACCURACY_VALUE','');
#36=(GEOMETRIC_REPRESENTATION_CONTEXT(3)GLOBAL_UNCERTAINTY_ASSIGNED_CONTEXT((#34))GLOBAL_UNIT_ASSIGNED_CONTEXT((#24,#28,#32))REPRESENTATION_CONTEXT('None','None'));
#37=AXIS2_PLACEMENT_3D('',#38,#39,#40);
#38=CARTESIAN_POINT('',(0.0,0.0,0.0));
#39=DIRECTION('',(0.0,0.0,1.0));
#40=DIRECTION('',(1.0,0.0,0.0));
#41=SHAPE_REPRESENTATION('',(#37),#36);
#42=PRODUCT_DEFINITION_SHAPE('','',#12);
#43=SHAPE_DEFINITION_REPRESENTATION(#42,#41);
#49=(NAMED_UNIT(*)PLANE_ANGLE_UNIT()SI_UNIT($,.RADIAN.));
#50=DIMENSIONAL_EXPONENTS(0.0,0.0,0.0,0.0,0.0,0.0,0.0);
#51=PLANE_ANGLE_MEASURE_WITH_UNIT(PLANE_ANGLE_MEASURE(0.0174532925),#49);
#55=(CONVERSION_BASED_UNIT('DEGREE',#51)NAMED_UNIT(#50)PLANE_ANGLE_UNIT());
#59=(NAMED_UNIT(*)SI_UNIT($,.STERADIAN.)SOLID_ANGLE_UNIT());
#63=(LENGTH_UNIT()NAMED_UNIT(*)SI_UNIT(.MILLI.,.METRE.));
#65=UNCERTAINTY_MEASURE_WITH_UNIT(LENGTH_MEASURE(0.000001),#63,'DISTANCE_ACCURACY_VALUE','');
#67=(GEOMETRIC_REPRESENTATION_CONTEXT(3)GLOBAL_UNCERTAINTY_ASSIGNED_CONTEXT((#65))GLOBAL_UNIT_ASSIGNED_CONTEXT((#55,#59,#63))REPRESENTATION_CONTEXT('','3D'));
#68=CARTESIAN_POINT('',(0.0,0.0,0.2));
#69=DIRECTION('',(0.0,0.0,1.0));
#70=DIRECTION('',(1.0,0.0,0.0));
#71=AXIS2_PLACEMENT_3D('',#68,#69,#70);
#72=CONICAL_SURFACE('',#71,3.15,45.000000000000021);
#73=CARTESIAN_POINT('',(-3.35,4.102567E-016,0.4));
#74=VERTEX_POINT('',#73);
#75=CARTESIAN_POINT('',(0.0,0.0,0.4));
#76=DIRECTION('',(0.0,0.0,-1.0));
#77=DIRECTION('',(1.0,0.0,0.0));
#78=AXIS2_PLACEMENT_3D('',#75,#76,#77);
#79=CIRCLE('',#78,3.35);
#80=EDGE_CURVE('',#74,#74,#79,.T.);
#81=ORIENTED_EDGE('',*,*,#80,.T.);
#82=EDGE_LOOP('',(#81));
#83=FACE_OUTER_BOUND('',#82,.T.);
#84=CARTESIAN_POINT('',(-2.949999999999999,-3.612708E-016,0.0));
#85=VERTEX_POINT('',#84);
#86=CARTESIAN_POINT('',(0.0,0.0,0.0));
#87=DIRECTION('',(0.0,0.0,1.0));
#88=DIRECTION('',(1.0,0.0,0.0));
#89=AXIS2_PLACEMENT_3D('',#86,#87,#88);
#90=CIRCLE('',#89,2.949999999999999);
#91=EDGE_CURVE('',#85,#85,#90,.T.);
#92=ORIENTED_EDGE('',*,*,#91,.T.);
#93=EDGE_LOOP('',(#92));
#94=FACE_BOUND('',#93,.T.);
#95=ADVANCED_FACE('',(#83,#94),#72,.T.);
#96=CARTESIAN_POINT('',(0.0,0.0,0.0));
#97=DIRECTION('',(0.0,0.0,-1.0));
#98=DIRECTION('',(-1.0,0.0,0.0));
#99=AXIS2_PLACEMENT_3D('',#96,#97,#98);
#100=PLANE('',#99);
#101=ORIENTED_EDGE('',*,*,#91,.F.);
#102=EDGE_LOOP('',(#101));
#103=FACE_OUTER_BOUND('',#102,.T.);
#104=CARTESIAN_POINT('',(-2.775,3.398395E-016,0.0));
#105=VERTEX_POINT('',#104);
#106=CARTESIAN_POINT('',(0.0,0.0,0.0));
#107=DIRECTION('',(0.0,0.0,-1.0));
#108=DIRECTION('',(1.0,0.0,0.0));
#109=AXIS2_PLACEMENT_3D('',#106,#107,#108);
#110=CIRCLE('',#109,2.775);
#111=EDGE_CURVE('',#105,#105,#110,.T.);
#112=ORIENTED_EDGE('',*,*,#111,.F.);
#113=EDGE_LOOP('',(#112));
#114=FACE_BOUND('',#113,.T.);
#115=ADVANCED_FACE('',(#103,#114),#100,.T.);
#116=CARTESIAN_POINT('',(0.0,0.0,0.0));
#117=DIRECTION('',(0.0,0.0,1.0));
#118=DIRECTION('',(1.0,0.0,0.0));
#119=AXIS2_PLACEMENT_3D('',#116,#117,#118);
#120=CYLINDRICAL_SURFACE('',#119,3.35);
#121=CARTESIAN_POINT('',(-3.35,4.102567E-016,3.0));
#122=VERTEX_POINT('',#121);
#123=CARTESIAN_POINT('',(0.0,0.0,3.0));
#124=DIRECTION('',(0.0,0.0,-1.0));
#125=DIRECTION('',(1.0,0.0,0.0));
#126=AXIS2_PLACEMENT_3D('',#123,#124,#125);
#127=CIRCLE('',#126,3.35);
#128=EDGE_CURVE('',#122,#122,#127,.T.);
#129=ORIENTED_EDGE('',*,*,#128,.T.);
#130=EDGE_LOOP('',(#129));
#131=FACE_OUTER_BOUND('',#130,.T.);
#132=ORIENTED_EDGE('',*,*,#80,.F.);
#133=EDGE_LOOP('',(#132));
#134=FACE_BOUND('',#133,.T.);
#135=ADVANCED_FACE('',(#131,#134),#120,.T.);
#136=CARTESIAN_POINT('',(0.0,0.0,0.1));
#137=DIRECTION('',(0.0,0.0,-1.0));
#138=DIRECTION('',(1.0,0.0,0.0));
#139=AXIS2_PLACEMENT_3D('',#136,#137,#138);
#140=CONICAL_SURFACE('',#139,2.675,45.000000000000007);
#141=CARTESIAN_POINT('',(-2.575,-3.153466E-016,0.2));
#142=VERTEX_POINT('',#141);
#143=CARTESIAN_POINT('',(0.0,0.0,0.2));
#144=DIRECTION('',(0.0,0.0,1.0));
#145=DIRECTION('',(1.0,0.0,0.0));
#146=AXIS2_PLACEMENT_3D('',#143,#144,#145);
#147=CIRCLE('',#146,2.575);
#148=EDGE_CURVE('',#142,#142,#147,.T.);
#149=ORIENTED_EDGE('',*,*,#148,.T.);
#150=EDGE_LOOP('',(#149));
#151=FACE_OUTER_BOUND('',#150,.T.);
#152=ORIENTED_EDGE('',*,*,#111,.T.);
#153=EDGE_LOOP('',(#152));
#154=FACE_BOUND('',#153,.T.);
#155=ADVANCED_FACE('',(#151,#154),#140,.F.);
#156=CARTESIAN_POINT('',(0.0,0.0,3.5));
#157=DIRECTION('',(0.0,0.0,-1.0));
#158=DIRECTION('',(-1.0,0.0,0.0));
#159=AXIS2_PLACEMENT_3D('',#156,#157,#158);
#160=CYLINDRICAL_SURFACE('',#159,2.575);
#161=CARTESIAN_POINT('',(-2.575,0.0,7.000000000000001));
#162=VERTEX_POINT('',#161);
#163=CARTESIAN_POINT('',(0.0,0.0,7.000000000000001));
#164=DIRECTION('',(0.0,0.0,-1.0));
#165=DIRECTION('',(-1.0,0.0,0.0));
#166=AXIS2_PLACEMENT_3D('',#163,#164,#165);
#167=CIRCLE('',#166,2.575);
#168=EDGE_CURVE('',#162,#162,#167,.T.);
#169=ORIENTED_EDGE('',*,*,#168,.F.);
#170=EDGE_LOOP('',(#169));
#171=FACE_OUTER_BOUND('',#170,.T.);
#172=ORIENTED_EDGE('',*,*,#148,.F.);
#173=EDGE_LOOP('',(#172));
#174=FACE_BOUND('',#173,.T.);
#175=ADVANCED_FACE('',(#171,#174),#160,.F.);
#176=CARTESIAN_POINT('',(0.0,0.0,7.743338471581645));
#177=DIRECTION('',(0.0,0.0,-1.0));
#178=DIRECTION('',(-1.0,0.0,0.0));
#179=AXIS2_PLACEMENT_3D('',#176,#177,#178);
#180=CONICAL_SURFACE('',#179,1.2875,59.999999999999993);
#181=CARTESIAN_POINT('',(-1.5,1.836970E-016,7.620651539378849));
#182=VERTEX_POINT('',#181);
#183=CARTESIAN_POINT('',(0.0,0.0,7.620651539378849));
#184=DIRECTION('',(0.0,0.0,-1.0));
#185=DIRECTION('',(1.0,0.0,0.0));
#186=AXIS2_PLACEMENT_3D('',#183,#184,#185);
#187=CIRCLE('',#186,1.5);
#188=EDGE_CURVE('',#182,#182,#187,.T.);
#189=ORIENTED_EDGE('',*,*,#188,.F.);
#190=EDGE_LOOP('',(#189));
#191=FACE_OUTER_BOUND('',#190,.T.);
#192=ORIENTED_EDGE('',*,*,#168,.T.);
#193=EDGE_LOOP('',(#192));
#194=FACE_BOUND('',#193,.T.);
#195=ADVANCED_FACE('',(#191,#194),#180,.F.);
#196=CARTESIAN_POINT('',(0.0,0.0,-5.420116731075677));
#197=DIRECTION('',(0.0,0.0,1.0));
#198=DIRECTION('',(1.0,0.0,0.0));
#199=AXIS2_PLACEMENT_3D('',#196,#197,#198);
#200=CYLINDRICAL_SURFACE('',#199,1.5);
#201=ORIENTED_EDGE('',*,*,#188,.T.);
#202=EDGE_LOOP('',(#201));
#203=FACE_OUTER_BOUND('',#202,.T.);
#204=CARTESIAN_POINT('',(-1.5,1.836970E-016,9.996662954709572));
#205=VERTEX_POINT('',#204);
#206=CARTESIAN_POINT('',(0.0,0.0,9.996662954709572));
#207=DIRECTION('',(0.0,0.0,-1.0));
#208=DIRECTION('',(1.0,0.0,0.0));
#209=AXIS2_PLACEMENT_3D('',#206,#207,#208);
#210=CIRCLE('',#209,1.5);
#211=EDGE_CURVE('',#205,#205,#210,.T.);
#212=ORIENTED_EDGE('',*,*,#211,.F.);
#213=EDGE_LOOP('',(#212));
#214=FACE_BOUND('',#213,.T.);
#215=ADVANCED_FACE('',(#203,#214),#200,.F.);
#216=CARTESIAN_POINT('',(-2.840000000000002,3.477997E-016,8.919999999999996));
#217=CARTESIAN_POINT('',(-2.538476277905702,3.108737E-016,9.953795618609023));
#218=CARTESIAN_POINT('',(-1.462542298088377,1.791098E-016,9.998695586485066));
#219=CARTESIAN_POINT('',(-0.386608318271053,4.734586E-017,10.04359555436111));
#220=CARTESIAN_POINT('',(-2.220446E-016,4.930381E-032,9.038516480713444));
#221=CARTESIAN_POINT('',(-2.840000000000001,2.840000000000001,8.919999999999996));
#222=CARTESIAN_POINT('',(-2.538476277905701,2.538476277905702,9.953795618609023));
#223=CARTESIAN_POINT('',(-1.462542298088377,1.462542298088377,9.998695586485066));
#224=CARTESIAN_POINT('',(-0.386608318271052,0.386608318271053,10.04359555436111));
#225=CARTESIAN_POINT('',(-2.220446E-016,2.220446E-016,9.038516480713444));
#226=CARTESIAN_POINT('',(3.477997E-016,2.840000000000002,8.919999999999996));
#227=CARTESIAN_POINT('',(3.108737E-016,2.538476277905702,9.953795618609023));
#228=CARTESIAN_POINT('',(1.791098E-016,1.462542298088377,9.998695586485066));
#229=CARTESIAN_POINT('',(4.734586E-017,0.386608318271053,10.04359555436111));
#230=CARTESIAN_POINT('',(4.930381E-032,2.220446E-016,9.038516480713444));
#231=CARTESIAN_POINT('',(2.840000000000001,2.840000000000001,8.919999999999996));
#232=CARTESIAN_POINT('',(2.538476277905702,2.538476277905701,9.953795618609023));
#233=CARTESIAN_POINT('',(1.462542298088377,1.462542298088377,9.998695586485066));
#234=CARTESIAN_POINT('',(0.386608318271053,0.386608318271052,10.04359555436111));
#235=CARTESIAN_POINT('',(2.220446E-016,2.220446E-016,9.038516480713444));
#236=CARTESIAN_POINT('',(2.840000000000002,-3.477997E-016,8.919999999999996));
#237=CARTESIAN_POINT('',(2.538476277905702,-3.108737E-016,9.953795618609023));
#238=CARTESIAN_POINT('',(1.462542298088377,-1.791098E-016,9.998695586485066));
#239=CARTESIAN_POINT('',(0.386608318271053,-4.734586E-017,10.04359555436111));
#240=CARTESIAN_POINT('',(2.220446E-016,-4.930381E-032,9.038516480713444));
#241=CARTESIAN_POINT('',(2.840000000000001,-2.840000000000001,8.919999999999996));
#242=CARTESIAN_POINT('',(2.538476277905701,-2.538476277905702,9.953795618609023));
#243=CARTESIAN_POINT('',(1.462542298088377,-1.462542298088377,9.998695586485066));
#244=CARTESIAN_POINT('',(0.386608318271052,-0.386608318271053,10.04359555436111));
#245=CARTESIAN_POINT('',(2.220446E-016,-2.220446E-016,9.038516480713444));
#246=CARTESIAN_POINT('',(-3.477997E-016,-2.840000000000002,8.919999999999996));
#247=CARTESIAN_POINT('',(-3.108737E-016,-2.538476277905702,9.953795618609023));
#248=CARTESIAN_POINT('',(-1.791098E-016,-1.462542298088377,9.998695586485066));
#249=CARTESIAN_POINT('',(-4.734586E-017,-0.386608318271053,10.04359555436111));
#250=CARTESIAN_POINT('',(-4.930381E-032,-2.220446E-016,9.038516480713444));
#251=CARTESIAN_POINT('',(-2.840000000000001,-2.840000000000001,8.919999999999996));
#252=CARTESIAN_POINT('',(-2.538476277905702,-2.538476277905701,9.953795618609023));
#253=CARTESIAN_POINT('',(-1.462542298088377,-1.462542298088377,9.998695586485066));
#254=CARTESIAN_POINT('',(-0.386608318271053,-0.386608318271052,10.04359555436111));
#255=CARTESIAN_POINT('',(-2.220446E-016,-2.220446E-016,9.038516480713444));
#256=CARTESIAN_POINT('',(-2.840000000000002,3.477997E-016,8.919999999999996));
#257=CARTESIAN_POINT('',(-2.538476277905702,3.108737E-016,9.953795618609023));
#258=CARTESIAN_POINT('',(-1.462542298088377,1.791098E-016,9.998695586485066));
#259=CARTESIAN_POINT('',(-0.386608318271053,4.734586E-017,10.04359555436111));
#260=CARTESIAN_POINT('',(-2.220446E-016,4.930381E-032,9.038516480713444));
#268=(BOUNDED_SURFACE()B_SPLINE_SURFACE(2,2,((#216,#221,#226,#231,#236,#241,#246,#251,#256),(#217,#222,#227,#232,#237,#242,#247,#252,#257),(#218,#223,#228,#233,#238,#243,#248,#253,#258),(#219,#224,#229,#234,#239,#244,#249,#254,#259),(#220,#225,#230,#235,#240,#245,#250,#255,#260)),.UNSPECIFIED.,.F.,.T.,.U.)B_SPLINE_SURFACE_WITH_KNOTS((3,2,3),(3,2,2,2,3),(0.283794109208328,1.529089371120143,2.774384633031958),(0.0,1.570796326794897,3.141592653589793,4.71238898038469,6.283185307179586),.UNSPECIFIED.)GEOMETRIC_REPRESENTATION_ITEM()RATIONAL_B_SPLINE_SURFACE(((1.0,0.707106781186548,1.0,0.707106781186548,1.0,0.707106781186548,1.0,0.707106781186548,1.0),(0.812337239160484,0.574409170420737,0.812337239160484,0.574409170420737,0.812337239160484,0.574409170420737,0.812337239160484,0.574409170420737,0.812337239160484),(1.0,0.707106781186548,1.0,0.707106781186548,1.0,0.707106781186548,1.0,0.707106781186548,1.0),(0.812337239160489,0.57440917042074,0.812337239160489,0.57440917042074,0.812337239160489,0.57440917042074,0.812337239160489,0.57440917042074,0.812337239160489),(1.0,0.707106781186548,1.0,0.707106781186548,1.0,0.707106781186548,1.0,0.707106781186548,1.0)))REPRESENTATION_ITEM('')SURFACE());
#269=ORIENTED_EDGE('',*,*,#211,.T.);
#270=EDGE_LOOP('',(#269));
#271=FACE_OUTER_BOUND('',#270,.T.);
#272=CARTESIAN_POINT('',(-2.840000000000003,1.738998E-016,8.919999999999996));
#273=VERTEX_POINT('',#272);
#274=CARTESIAN_POINT('',(0.0,0.0,8.919999999999996));
#275=DIRECTION('',(0.0,0.0,1.0));
#276=DIRECTION('',(-1.0,0.0,0.0));
#277=AXIS2_PLACEMENT_3D('',#274,#275,#276);
#278=CIRCLE('',#277,2.840000000000003);
#279=EDGE_CURVE('',#273,#273,#278,.T.);
#280=ORIENTED_EDGE('',*,*,#279,.T.);
#281=EDGE_LOOP('',(#280));
#282=FACE_BOUND('',#281,.T.);
#283=ADVANCED_FACE('',(#271,#282),#268,.T.);
#284=CARTESIAN_POINT('',(-3.4,4.163799E-016,5.0));
#285=CARTESIAN_POINT('',(-3.400000000000001,4.163799E-016,6.999999999999995));
#286=CARTESIAN_POINT('',(-2.840000000000002,3.477997E-016,8.919999999999996));
#287=CARTESIAN_POINT('',(-3.399999999999999,3.4,5.0));
#288=CARTESIAN_POINT('',(-3.4,3.4,6.999999999999996));
#289=CARTESIAN_POINT('',(-2.840000000000001,2.840000000000001,8.919999999999996));
#290=CARTESIAN_POINT('',(4.163799E-016,3.4,5.0));
#291=CARTESIAN_POINT('',(4.163799E-016,3.400000000000001,6.999999999999995));
#292=CARTESIAN_POINT('',(3.477997E-016,2.840000000000002,8.919999999999996));
#293=CARTESIAN_POINT('',(3.4,3.399999999999999,5.0));
#294=CARTESIAN_POINT('',(3.4,3.4,6.999999999999996));
#295=CARTESIAN_POINT('',(2.840000000000001,2.840000000000001,8.919999999999996));
#296=CARTESIAN_POINT('',(3.4,-4.163799E-016,5.0));
#297=CARTESIAN_POINT('',(3.400000000000001,-4.163799E-016,6.999999999999995));
#298=CARTESIAN_POINT('',(2.840000000000002,-3.477997E-016,8.919999999999996));
#299=CARTESIAN_POINT('',(3.399999999999999,-3.4,5.0));
#300=CARTESIAN_POINT('',(3.4,-3.4,6.999999999999996));
#301=CARTESIAN_POINT('',(2.840000000000001,-2.840000000000001,8.919999999999996));
#302=CARTESIAN_POINT('',(-4.163799E-016,-3.4,5.0));
#303=CARTESIAN_POINT('',(-4.163799E-016,-3.400000000000001,6.999999999999995));
#304=CARTESIAN_POINT('',(-3.477997E-016,-2.840000000000002,8.919999999999996));
#305=CARTESIAN_POINT('',(-3.4,-3.399999999999999,5.0));
#306=CARTESIAN_POINT('',(-3.4,-3.4,6.999999999999996));
#307=CARTESIAN_POINT('',(-2.840000000000001,-2.840000000000001,8.919999999999996));
#308=CARTESIAN_POINT('',(-3.4,4.163799E-016,5.0));
#309=CARTESIAN_POINT('',(-3.400000000000001,4.163799E-016,6.999999999999995));
#310=CARTESIAN_POINT('',(-2.840000000000002,3.477997E-016,8.919999999999996));
#318=(BOUNDED_SURFACE()B_SPLINE_SURFACE(2,2,((#284,#287,#290,#293,#296,#299,#302,#305,#308),(#285,#288,#291,#294,#297,#300,#303,#306,#309),(#286,#289,#292,#295,#298,#301,#304,#307,#310)),.UNSPECIFIED.,.F.,.T.,.U.)B_SPLINE_SURFACE_WITH_KNOTS((3,3),(3,2,2,2,3),(0.0,0.283794109208328),(0.0,1.570796326794897,3.141592653589793,4.71238898038469,6.283185307179586),.UNSPECIFIED.)GEOMETRIC_REPRESENTATION_ITEM()RATIONAL_B_SPLINE_SURFACE(((1.0,0.707106781186548,1.0,0.707106781186548,1.0,0.707106781186548,1.0,0.707106781186548,1.0),(0.989949493661177,0.700000000000008,0.989949493661177,0.700000000000008,0.989949493661177,0.700000000000008,0.989949493661177,0.700000000000008,0.989949493661177),(1.0,0.707106781186548,1.0,0.707106781186548,1.0,0.707106781186548,1.0,0.707106781186548,1.0)))REPRESENTATION_ITEM('')SURFACE());
#319=CARTESIAN_POINT('',(3.400000000000001,4.163799E-016,5.0));
#320=VERTEX_POINT('',#319);
#321=CARTESIAN_POINT('',(0.0,0.0,5.0));
#322=DIRECTION('',(0.0,0.0,1.0));
#323=DIRECTION('',(-1.0,0.0,0.0));
#324=AXIS2_PLACEMENT_3D('',#321,#322,#323);
#325=CIRCLE('',#324,3.400000000000001);
#326=EDGE_CURVE('',#320,#320,#325,.T.);
#327=ORIENTED_EDGE('',*,*,#326,.T.);
#328=EDGE_LOOP('',(#327));
#329=FACE_OUTER_BOUND('',#328,.T.);
#330=ORIENTED_EDGE('',*,*,#279,.F.);
#331=EDGE_LOOP('',(#330));
#332=FACE_BOUND('',#331,.T.);
#333=ADVANCED_FACE('',(#329,#332),#318,.T.);
#334=CARTESIAN_POINT('',(0.0,0.0,3.0));
#335=DIRECTION('',(0.0,0.0,1.0));
#336=DIRECTION('',(1.0,0.0,0.0));
#337=AXIS2_PLACEMENT_3D('',#334,#335,#336);
#338=PLANE('',#337);
#339=CARTESIAN_POINT('',(-4.15,5.082284E-016,3.0));
#340=VERTEX_POINT('',#339);
#341=CARTESIAN_POINT('',(0.0,0.0,3.0));
#342=DIRECTION('',(0.0,0.0,1.0));
#343=DIRECTION('',(-1.0,0.0,0.0));
#344=AXIS2_PLACEMENT_3D('',#341,#342,#343);
#345=CIRCLE('',#344,4.15);
#346=EDGE_CURVE('',#340,#340,#345,.T.);
#347=ORIENTED_EDGE('',*,*,#346,.F.);
#348=EDGE_LOOP('',(#347));
#349=FACE_OUTER_BOUND('',#348,.T.);
#350=ORIENTED_EDGE('',*,*,#128,.F.);
#351=EDGE_LOOP('',(#350));
#352=FACE_BOUND('',#351,.T.);
#353=ADVANCED_FACE('',(#349,#352),#338,.F.);
#354=CARTESIAN_POINT('',(0.0,0.0,5.0));
#355=DIRECTION('',(0.0,0.0,-1.0));
#356=DIRECTION('',(-1.0,0.0,0.0));
#357=AXIS2_PLACEMENT_3D('',#354,#355,#356);
#358=PLANE('',#357);
#359=CARTESIAN_POINT('',(4.15,5.082284E-016,5.0));
#360=VERTEX_POINT('',#359);
#361=CARTESIAN_POINT('',(0.0,0.0,5.0));
#362=DIRECTION('',(0.0,0.0,-1.0));
#363=DIRECTION('',(-1.0,0.0,0.0));
#364=AXIS2_PLACEMENT_3D('',#361,#362,#363);
#365=CIRCLE('',#364,4.15);
#366=EDGE_CURVE('',#360,#360,#365,.T.);
#367=ORIENTED_EDGE('',*,*,#366,.F.);
#368=EDGE_LOOP('',(#367));
#369=FACE_OUTER_BOUND('',#368,.T.);
#370=ORIENTED_EDGE('',*,*,#326,.F.);
#371=EDGE_LOOP('',(#370));
#372=FACE_BOUND('',#371,.T.);
#373=ADVANCED_FACE('',(#369,#372),#358,.F.);
#374=CARTESIAN_POINT('',(0.0,0.0,0.0));
#375=DIRECTION('',(0.0,0.0,1.0));
#376=DIRECTION('',(-1.0,0.0,0.0));
#377=AXIS2_PLACEMENT_3D('',#374,#375,#376);
#378=CYLINDRICAL_SURFACE('',#377,4.15);
#379=ORIENTED_EDGE('',*,*,#346,.T.);
#380=EDGE_LOOP('',(#379));
#381=FACE_OUTER_BOUND('',#380,.T.);
#382=ORIENTED_EDGE('',*,*,#366,.T.);
#383=EDGE_LOOP('',(#382));
#384=FACE_BOUND('',#383,.T.);
#385=ADVANCED_FACE('',(#381,#384),#378,.T.);
#386=CLOSED_SHELL('',(#95,#115,#135,#155,#175,#195,#215,#283,#333,#353,#373,#385));
#387=MANIFOLD_SOLID_BREP('T\X2\011B\X0\leso1',#386);
#388=COLOUR_RGB('Kov-Ocel',0.639216005802155,0.639216005802155,0.686275005340576);
#389=FILL_AREA_STYLE_COLOUR('Kov-Ocel',#388);
#390=FILL_AREA_STYLE('Kov-Ocel',(#389));
#391=SURFACE_STYLE_FILL_AREA(#390);
#392=SURFACE_SIDE_STYLE('Kov-Ocel',(#391));
#393=SURFACE_STYLE_USAGE(.BOTH.,#392);
#394=PRESENTATION_STYLE_ASSIGNMENT((#393));
#395=STYLED_ITEM('',(#394),#387);
#396=MECHANICAL_DESIGN_GEOMETRIC_PRESENTATION_REPRESENTATION('',(#395),#36);
#397=ADVANCED_BREP_SHAPE_REPRESENTATION('ABSR',(#387),#36);
#398=SHAPE_REPRESENTATION_RELATIONSHIP('SRR','None',#397,#41);
ENDSEC;
END-ISO-10303-21;
