ISO-10303-21;
HEADER;
/****************************************************************
 * Generated by software with PDElib inside                    *
 * PDElib Version v51a, created Wed 07/06/2011                  *
 * ITI Transcendata (http://www.transcendata.com/)              *
 ****************************************************************/
FILE_DESCRIPTION((''),'2;1');
FILE_NAME('J:\\prilohy\\modely\\62864119062.stp','2015-09-25T10:34:20',('Ji\X2\FFFDFFFD\X0\'),(''),'Autodesk Inventor 2012','Autodesk Inventor 2012','');
FILE_SCHEMA(('AUTOMOTIVE_DESIGN { 1 0 10303 214 1 1 1 1 }'));
ENDSEC;
DATA;
#5=APPLICATION_CONTEXT('automotive design');
#6=APPLICATION_PROTOCOL_DEFINITION('International Standard','automotive_design',2001,#5);
#7=PRODUCT_CONTEXT('',#5,'mechanical');
#8=PRODUCT('62864119062','62864119062',$,(#7));
#9=PRODUCT_RELATED_PRODUCT_CATEGORY('part',$,(#8));
#10=PRODUCT_DEFINITION_FORMATION('',$,#8);
#11=PRODUCT_DEFINITION_CONTEXT('part definition',#5,'design');
#12=PRODUCT_DEFINITION('',$,#10,#11);
#18=(NAMED_UNIT(*)PLANE_ANGLE_UNIT()SI_UNIT($,.RADIAN.));
#19=DIMENSIONAL_EXPONENTS(0.0,0.0,0.0,0.0,0.0,0.0,0.0);
#20=PLANE_ANGLE_MEASURE_WITH_UNIT(PLANE_ANGLE_MEASURE(0.0174532925),#18);
#24=(CONVERSION_BASED_UNIT('DEGREE',#20)NAMED_UNIT(#19)PLANE_ANGLE_UNIT());
#28=(NAMED_UNIT(*)SI_UNIT($,.STERADIAN.)SOLID_ANGLE_UNIT());
#32=(LENGTH_UNIT()NAMED_UNIT(*)SI_UNIT(.MILLI.,.METRE.));
#34=UNCERTAINTY_MEASURE_WITH_UNIT(LENGTH_MEASURE(0.01),#32,'DISTANCE_ACCURACY_VALUE','');
#36=(GEOMETRIC_REPRESENTATION_CONTEXT(3)GLOBAL_UNCERTAINTY_ASSIGNED_CONTEXT((#34))GLOBAL_UNIT_ASSIGNED_CONTEXT((#24,#28,#32))REPRESENTATION_CONTEXT('None','None'));
#37=AXIS2_PLACEMENT_3D('',#38,#39,#40);
#38=CARTESIAN_POINT('',(0.0,0.0,0.0));
#39=DIRECTION('',(0.0,0.0,1.0));
#40=DIRECTION('',(1.0,0.0,0.0));
#41=SHAPE_REPRESENTATION('',(#37),#36);
#42=PRODUCT_DEFINITION_SHAPE('','',#12);
#43=SHAPE_DEFINITION_REPRESENTATION(#42,#41);
#49=(NAMED_UNIT(*)PLANE_ANGLE_UNIT()SI_UNIT($,.RADIAN.));
#50=DIMENSIONAL_EXPONENTS(0.0,0.0,0.0,0.0,0.0,0.0,0.0);
#51=PLANE_ANGLE_MEASURE_WITH_UNIT(PLANE_ANGLE_MEASURE(0.0174532925),#49);
#55=(CONVERSION_BASED_UNIT('DEGREE',#51)NAMED_UNIT(#50)PLANE_ANGLE_UNIT());
#59=(NAMED_UNIT(*)SI_UNIT($,.STERADIAN.)SOLID_ANGLE_UNIT());
#63=(LENGTH_UNIT()NAMED_UNIT(*)SI_UNIT(.MILLI.,.METRE.));
#65=UNCERTAINTY_MEASURE_WITH_UNIT(LENGTH_MEASURE(0.000001),#63,'DISTANCE_ACCURACY_VALUE','');
#67=(GEOMETRIC_REPRESENTATION_CONTEXT(3)GLOBAL_UNCERTAINTY_ASSIGNED_CONTEXT((#65))GLOBAL_UNIT_ASSIGNED_CONTEXT((#55,#59,#63))REPRESENTATION_CONTEXT('','3D'));
#68=CARTESIAN_POINT('',(0.0,0.0,14.250000000000004));
#69=DIRECTION('',(0.0,0.0,-1.0));
#70=DIRECTION('',(-1.0,0.0,0.0));
#71=AXIS2_PLACEMENT_3D('',#68,#69,#70);
#72=CONICAL_SURFACE('',#71,3.5,44.999999999999979);
#73=CARTESIAN_POINT('',(3.75,4.592274E-016,14.000000000000002));
#74=VERTEX_POINT('',#73);
#75=CARTESIAN_POINT('',(0.0,0.0,14.000000000000002));
#76=DIRECTION('',(0.0,0.0,1.0));
#77=DIRECTION('',(-1.0,0.0,0.0));
#78=AXIS2_PLACEMENT_3D('',#75,#76,#77);
#79=CIRCLE('',#78,3.75);
#80=EDGE_CURVE('',#74,#74,#79,.T.);
#81=ORIENTED_EDGE('',*,*,#80,.T.);
#82=EDGE_LOOP('',(#81));
#83=FACE_OUTER_BOUND('',#82,.T.);
#84=CARTESIAN_POINT('',(3.25,-3.979971E-016,14.500000000000002));
#85=VERTEX_POINT('',#84);
#86=CARTESIAN_POINT('',(0.0,0.0,14.500000000000002));
#87=DIRECTION('',(0.0,0.0,-1.0));
#88=DIRECTION('',(-1.0,0.0,0.0));
#89=AXIS2_PLACEMENT_3D('',#86,#87,#88);
#90=CIRCLE('',#89,3.25);
#91=EDGE_CURVE('',#85,#85,#90,.T.);
#92=ORIENTED_EDGE('',*,*,#91,.T.);
#93=EDGE_LOOP('',(#92));
#94=FACE_BOUND('',#93,.T.);
#95=ADVANCED_FACE('',(#83,#94),#72,.T.);
#96=CARTESIAN_POINT('',(0.0,0.0,14.500000000000002));
#97=DIRECTION('',(0.0,0.0,-1.0));
#98=DIRECTION('',(-1.0,0.0,0.0));
#99=AXIS2_PLACEMENT_3D('',#96,#97,#98);
#100=CYLINDRICAL_SURFACE('',#99,3.75);
#101=CARTESIAN_POINT('',(3.75,-4.592274E-016,4.200000000000001));
#102=VERTEX_POINT('',#101);
#103=CARTESIAN_POINT('',(0.0,0.0,4.200000000000001));
#104=DIRECTION('',(0.0,0.0,-1.0));
#105=DIRECTION('',(-1.0,0.0,0.0));
#106=AXIS2_PLACEMENT_3D('',#103,#104,#105);
#107=CIRCLE('',#106,3.75);
#108=EDGE_CURVE('',#102,#102,#107,.T.);
#109=ORIENTED_EDGE('',*,*,#108,.F.);
#110=EDGE_LOOP('',(#109));
#111=FACE_OUTER_BOUND('',#110,.T.);
#112=ORIENTED_EDGE('',*,*,#80,.F.);
#113=EDGE_LOOP('',(#112));
#114=FACE_BOUND('',#113,.T.);
#115=ADVANCED_FACE('',(#111,#114),#100,.T.);
#116=CARTESIAN_POINT('',(0.0,0.0,14.500000000000002));
#117=DIRECTION('',(0.0,0.0,-1.0));
#118=DIRECTION('',(-1.0,0.0,0.0));
#119=AXIS2_PLACEMENT_3D('',#116,#117,#118);
#120=PLANE('',#119);
#121=ORIENTED_EDGE('',*,*,#91,.F.);
#122=EDGE_LOOP('',(#121));
#123=FACE_OUTER_BOUND('',#122,.T.);
#124=CARTESIAN_POINT('',(0.0,-3.0,14.500000000000002));
#125=VERTEX_POINT('',#124);
#126=CARTESIAN_POINT('',(0.0,0.0,14.500000000000002));
#127=DIRECTION('',(0.0,0.0,-1.0));
#128=DIRECTION('',(0.0,-1.0,0.0));
#129=AXIS2_PLACEMENT_3D('',#126,#127,#128);
#130=CIRCLE('',#129,3.0);
#131=EDGE_CURVE('',#125,#125,#130,.T.);
#132=ORIENTED_EDGE('',*,*,#131,.T.);
#133=EDGE_LOOP('',(#132));
#134=FACE_BOUND('',#133,.T.);
#135=ADVANCED_FACE('',(#123,#134),#120,.F.);
#136=CARTESIAN_POINT('',(0.0,0.0,3.900000000000001));
#137=DIRECTION('',(0.0,0.0,-1.0));
#138=DIRECTION('',(-1.0,0.0,0.0));
#139=AXIS2_PLACEMENT_3D('',#136,#137,#138);
#140=CONICAL_SURFACE('',#139,5.775,45.000000000000007);
#141=CARTESIAN_POINT('',(5.675,-6.949641E-016,4.000000000000002));
#142=VERTEX_POINT('',#141);
#143=CARTESIAN_POINT('',(0.0,0.0,4.000000000000002));
#144=DIRECTION('',(0.0,0.0,-1.0));
#145=DIRECTION('',(-1.0,0.0,0.0));
#146=AXIS2_PLACEMENT_3D('',#143,#144,#145);
#147=CIRCLE('',#146,5.675);
#148=EDGE_CURVE('',#142,#142,#147,.T.);
#149=ORIENTED_EDGE('',*,*,#148,.T.);
#150=EDGE_LOOP('',(#149));
#151=FACE_OUTER_BOUND('',#150,.T.);
#152=CARTESIAN_POINT('',(5.875,7.194562E-016,3.800000000000001));
#153=VERTEX_POINT('',#152);
#154=CARTESIAN_POINT('',(0.0,0.0,3.800000000000001));
#155=DIRECTION('',(0.0,0.0,1.0));
#156=DIRECTION('',(-1.0,0.0,0.0));
#157=AXIS2_PLACEMENT_3D('',#154,#155,#156);
#158=CIRCLE('',#157,5.875);
#159=EDGE_CURVE('',#153,#153,#158,.T.);
#160=ORIENTED_EDGE('',*,*,#159,.T.);
#161=EDGE_LOOP('',(#160));
#162=FACE_BOUND('',#161,.T.);
#163=ADVANCED_FACE('',(#151,#162),#140,.T.);
#164=CARTESIAN_POINT('',(0.0,0.0,0.0));
#165=DIRECTION('',(0.0,0.0,1.0));
#166=DIRECTION('',(-1.0,0.0,0.0));
#167=AXIS2_PLACEMENT_3D('',#164,#165,#166);
#168=CYLINDRICAL_SURFACE('',#167,5.875);
#169=CARTESIAN_POINT('',(5.875,-7.194562E-016,0.5));
#170=VERTEX_POINT('',#169);
#171=CARTESIAN_POINT('',(0.0,0.0,0.5));
#172=DIRECTION('',(0.0,0.0,-1.0));
#173=DIRECTION('',(-1.0,0.0,0.0));
#174=AXIS2_PLACEMENT_3D('',#171,#172,#173);
#175=CIRCLE('',#174,5.875);
#176=EDGE_CURVE('',#170,#170,#175,.T.);
#177=ORIENTED_EDGE('',*,*,#176,.F.);
#178=EDGE_LOOP('',(#177));
#179=FACE_OUTER_BOUND('',#178,.T.);
#180=ORIENTED_EDGE('',*,*,#159,.F.);
#181=EDGE_LOOP('',(#180));
#182=FACE_BOUND('',#181,.T.);
#183=ADVANCED_FACE('',(#179,#182),#168,.T.);
#184=CARTESIAN_POINT('',(0.0,0.0,4.000000000000002));
#185=DIRECTION('',(0.0,0.0,-1.0));
#186=DIRECTION('',(-1.0,0.0,0.0));
#187=AXIS2_PLACEMENT_3D('',#184,#185,#186);
#188=PLANE('',#187);
#189=ORIENTED_EDGE('',*,*,#148,.F.);
#190=EDGE_LOOP('',(#189));
#191=FACE_OUTER_BOUND('',#190,.T.);
#192=CARTESIAN_POINT('',(3.95,4.837195E-016,4.000000000000002));
#193=VERTEX_POINT('',#192);
#194=CARTESIAN_POINT('',(0.0,0.0,4.000000000000002));
#195=DIRECTION('',(0.0,0.0,1.0));
#196=DIRECTION('',(-1.0,0.0,0.0));
#197=AXIS2_PLACEMENT_3D('',#194,#195,#196);
#198=CIRCLE('',#197,3.95);
#199=EDGE_CURVE('',#193,#193,#198,.T.);
#200=ORIENTED_EDGE('',*,*,#199,.F.);
#201=EDGE_LOOP('',(#200));
#202=FACE_BOUND('',#201,.T.);
#203=ADVANCED_FACE('',(#191,#202),#188,.F.);
#204=CARTESIAN_POINT('',(0.0,0.0,0.25));
#205=DIRECTION('',(0.0,0.0,1.0));
#206=DIRECTION('',(-1.0,0.0,0.0));
#207=AXIS2_PLACEMENT_3D('',#204,#205,#206);
#208=CONICAL_SURFACE('',#207,5.625,45.000000000000028);
#209=ORIENTED_EDGE('',*,*,#176,.T.);
#210=EDGE_LOOP('',(#209));
#211=FACE_OUTER_BOUND('',#210,.T.);
#212=CARTESIAN_POINT('',(5.375,6.582259E-016,0.0));
#213=VERTEX_POINT('',#212);
#214=CARTESIAN_POINT('',(0.0,0.0,0.0));
#215=DIRECTION('',(0.0,0.0,1.0));
#216=DIRECTION('',(-1.0,0.0,0.0));
#217=AXIS2_PLACEMENT_3D('',#214,#215,#216);
#218=CIRCLE('',#217,5.375);
#219=EDGE_CURVE('',#213,#213,#218,.T.);
#220=ORIENTED_EDGE('',*,*,#219,.T.);
#221=EDGE_LOOP('',(#220));
#222=FACE_BOUND('',#221,.T.);
#223=ADVANCED_FACE('',(#211,#222),#208,.T.);
#224=CARTESIAN_POINT('',(0.0,0.0,0.0));
#225=DIRECTION('',(0.0,0.0,-1.0));
#226=DIRECTION('',(-1.0,0.0,0.0));
#227=AXIS2_PLACEMENT_3D('',#224,#225,#226);
#228=PLANE('',#227);
#229=ORIENTED_EDGE('',*,*,#219,.F.);
#230=EDGE_LOOP('',(#229));
#231=FACE_OUTER_BOUND('',#230,.T.);
#232=CARTESIAN_POINT('',(0.0,-3.9,0.0));
#233=VERTEX_POINT('',#232);
#234=CARTESIAN_POINT('',(0.0,0.0,0.0));
#235=DIRECTION('',(0.0,0.0,1.0));
#236=DIRECTION('',(0.0,-1.0,0.0));
#237=AXIS2_PLACEMENT_3D('',#234,#235,#236);
#238=CIRCLE('',#237,3.9);
#239=EDGE_CURVE('',#233,#233,#238,.T.);
#240=ORIENTED_EDGE('',*,*,#239,.T.);
#241=EDGE_LOOP('',(#240));
#242=FACE_BOUND('',#241,.T.);
#243=ADVANCED_FACE('',(#231,#242),#228,.T.);
#244=CARTESIAN_POINT('',(0.0,0.0,14.25));
#245=DIRECTION('',(0.0,0.0,1.0));
#246=DIRECTION('',(0.0,-1.0,0.0));
#247=AXIS2_PLACEMENT_3D('',#244,#245,#246);
#248=CONICAL_SURFACE('',#247,2.75,44.999999999999872);
#249=CARTESIAN_POINT('',(0.0,-2.5,14.0));
#250=VERTEX_POINT('',#249);
#251=CARTESIAN_POINT('',(0.0,0.0,14.000000000000004));
#252=DIRECTION('',(0.0,0.0,1.0));
#253=DIRECTION('',(1.0,0.0,0.0));
#254=AXIS2_PLACEMENT_3D('',#251,#252,#253);
#255=CIRCLE('',#254,2.5);
#256=EDGE_CURVE('',#250,#250,#255,.T.);
#257=ORIENTED_EDGE('',*,*,#256,.F.);
#258=EDGE_LOOP('',(#257));
#259=FACE_OUTER_BOUND('',#258,.T.);
#260=ORIENTED_EDGE('',*,*,#131,.F.);
#261=EDGE_LOOP('',(#260));
#262=FACE_BOUND('',#261,.T.);
#263=ADVANCED_FACE('',(#259,#262),#248,.F.);
#264=CARTESIAN_POINT('',(0.0,0.0,0.7));
#265=DIRECTION('',(0.0,0.0,-1.0));
#266=DIRECTION('',(0.0,-1.0,0.0));
#267=AXIS2_PLACEMENT_3D('',#264,#265,#266);
#268=CONICAL_SURFACE('',#267,3.2,45.000000000000007);
#269=ORIENTED_EDGE('',*,*,#239,.F.);
#270=EDGE_LOOP('',(#269));
#271=FACE_OUTER_BOUND('',#270,.T.);
#272=CARTESIAN_POINT('',(0.0,-2.5,1.4));
#273=VERTEX_POINT('',#272);
#274=CARTESIAN_POINT('',(0.0,0.0,1.4));
#275=DIRECTION('',(0.0,0.0,-1.0));
#276=DIRECTION('',(1.0,0.0,0.0));
#277=AXIS2_PLACEMENT_3D('',#274,#275,#276);
#278=CIRCLE('',#277,2.5);
#279=EDGE_CURVE('',#273,#273,#278,.T.);
#280=ORIENTED_EDGE('',*,*,#279,.F.);
#281=EDGE_LOOP('',(#280));
#282=FACE_BOUND('',#281,.T.);
#283=ADVANCED_FACE('',(#271,#282),#268,.F.);
#284=CARTESIAN_POINT('',(0.0,0.0,4.200000000000001));
#285=DIRECTION('',(0.0,0.0,1.0));
#286=DIRECTION('',(1.0,0.0,0.0));
#287=AXIS2_PLACEMENT_3D('',#284,#285,#286);
#288=TOROIDAL_SURFACE('',#287,3.95,0.2);
#289=ORIENTED_EDGE('',*,*,#199,.T.);
#290=EDGE_LOOP('',(#289));
#291=FACE_OUTER_BOUND('',#290,.T.);
#292=ORIENTED_EDGE('',*,*,#108,.T.);
#293=EDGE_LOOP('',(#292));
#294=FACE_BOUND('',#293,.T.);
#295=ADVANCED_FACE('',(#291,#294),#288,.F.);
#296=CARTESIAN_POINT('',(0.0,0.0,-7.553911217740947));
#297=DIRECTION('',(0.0,0.0,1.0));
#298=DIRECTION('',(1.0,0.0,0.0));
#299=AXIS2_PLACEMENT_3D('',#296,#297,#298);
#300=CYLINDRICAL_SURFACE('',#299,2.5);
#301=ORIENTED_EDGE('',*,*,#256,.T.);
#302=EDGE_LOOP('',(#301));
#303=FACE_OUTER_BOUND('',#302,.T.);
#304=ORIENTED_EDGE('',*,*,#279,.T.);
#305=EDGE_LOOP('',(#304));
#306=FACE_BOUND('',#305,.T.);
#307=ADVANCED_FACE('',(#303,#306),#300,.F.);
#308=CLOSED_SHELL('',(#95,#115,#135,#163,#183,#203,#223,#243,#263,#283,#295,#307));
#309=MANIFOLD_SOLID_BREP('T\X2\011B\X0\leso1',#308);
#310=COLOUR_RGB('Kov-Ocel',0.639216005802155,0.639216005802155,0.686275005340576);
#311=FILL_AREA_STYLE_COLOUR('Kov-Ocel',#310);
#312=FILL_AREA_STYLE('Kov-Ocel',(#311));
#313=SURFACE_STYLE_FILL_AREA(#312);
#314=SURFACE_SIDE_STYLE('Kov-Ocel',(#313));
#315=SURFACE_STYLE_USAGE(.BOTH.,#314);
#316=PRESENTATION_STYLE_ASSIGNMENT((#315));
#317=STYLED_ITEM('',(#316),#309);
#318=MECHANICAL_DESIGN_GEOMETRIC_PRESENTATION_REPRESENTATION('',(#317),#36);
#319=ADVANCED_BREP_SHAPE_REPRESENTATION('ABSR',(#309),#36);
#320=SHAPE_REPRESENTATION_RELATIONSHIP('SRR','None',#319,#41);
ENDSEC;
END-ISO-10303-21;
