ISO-10303-21;
HEADER;
/****************************************************************
 * Generated by software with PDElib inside                    *
 * PDElib Version v51a, created Wed 07/06/2011                  *
 * ITI Transcendata (http://www.transcendata.com/)              *
 ****************************************************************/
FILE_DESCRIPTION((''),'2;1');
FILE_NAME('J:\\prilohy\\modely\\6286411906.stp','2015-09-25T10:26:32',('Ji\X2\FFFDFFFD\X0\'),(''),'Autodesk Inventor 2012','Autodesk Inventor 2012','');
FILE_SCHEMA(('AUTOMOTIVE_DESIGN { 1 0 10303 214 1 1 1 1 }'));
ENDSEC;
DATA;
#5=APPLICATION_CONTEXT('automotive design');
#6=APPLICATION_PROTOCOL_DEFINITION('International Standard','automotive_design',2001,#5);
#7=PRODUCT_CONTEXT('',#5,'mechanical');
#8=PRODUCT('6286411906','6286411906',$,(#7));
#9=PRODUCT_RELATED_PRODUCT_CATEGORY('part',$,(#8));
#10=PRODUCT_DEFINITION_FORMATION('',$,#8);
#11=PRODUCT_DEFINITION_CONTEXT('part definition',#5,'design');
#12=PRODUCT_DEFINITION('',$,#10,#11);
#18=(NAMED_UNIT(*)PLANE_ANGLE_UNIT()SI_UNIT($,.RADIAN.));
#19=DIMENSIONAL_EXPONENTS(0.0,0.0,0.0,0.0,0.0,0.0,0.0);
#20=PLANE_ANGLE_MEASURE_WITH_UNIT(PLANE_ANGLE_MEASURE(0.0174532925),#18);
#24=(CONVERSION_BASED_UNIT('DEGREE',#20)NAMED_UNIT(#19)PLANE_ANGLE_UNIT());
#28=(NAMED_UNIT(*)SI_UNIT($,.STERADIAN.)SOLID_ANGLE_UNIT());
#32=(LENGTH_UNIT()NAMED_UNIT(*)SI_UNIT(.MILLI.,.METRE.));
#34=UNCERTAINTY_MEASURE_WITH_UNIT(LENGTH_MEASURE(0.01),#32,'DISTANCE_ACCURACY_VALUE','');
#36=(GEOMETRIC_REPRESENTATION_CONTEXT(3)GLOBAL_UNCERTAINTY_ASSIGNED_CONTEXT((#34))GLOBAL_UNIT_ASSIGNED_CONTEXT((#24,#28,#32))REPRESENTATION_CONTEXT('None','None'));
#37=AXIS2_PLACEMENT_3D('',#38,#39,#40);
#38=CARTESIAN_POINT('',(0.0,0.0,0.0));
#39=DIRECTION('',(0.0,0.0,1.0));
#40=DIRECTION('',(1.0,0.0,0.0));
#41=SHAPE_REPRESENTATION('',(#37),#36);
#42=PRODUCT_DEFINITION_SHAPE('','',#12);
#43=SHAPE_DEFINITION_REPRESENTATION(#42,#41);
#49=(NAMED_UNIT(*)PLANE_ANGLE_UNIT()SI_UNIT($,.RADIAN.));
#50=DIMENSIONAL_EXPONENTS(0.0,0.0,0.0,0.0,0.0,0.0,0.0);
#51=PLANE_ANGLE_MEASURE_WITH_UNIT(PLANE_ANGLE_MEASURE(0.0174532925),#49);
#55=(CONVERSION_BASED_UNIT('DEGREE',#51)NAMED_UNIT(#50)PLANE_ANGLE_UNIT());
#59=(NAMED_UNIT(*)SI_UNIT($,.STERADIAN.)SOLID_ANGLE_UNIT());
#63=(LENGTH_UNIT()NAMED_UNIT(*)SI_UNIT(.MILLI.,.METRE.));
#65=UNCERTAINTY_MEASURE_WITH_UNIT(LENGTH_MEASURE(0.000001),#63,'DISTANCE_ACCURACY_VALUE','');
#67=(GEOMETRIC_REPRESENTATION_CONTEXT(3)GLOBAL_UNCERTAINTY_ASSIGNED_CONTEXT((#65))GLOBAL_UNIT_ASSIGNED_CONTEXT((#55,#59,#63))REPRESENTATION_CONTEXT('','3D'));
#68=CARTESIAN_POINT('',(0.0,0.0,1.899999999999999));
#69=DIRECTION('',(0.0,0.0,1.0));
#70=DIRECTION('',(1.0,0.0,0.0));
#71=AXIS2_PLACEMENT_3D('',#68,#69,#70);
#72=TOROIDAL_SURFACE('',#71,5.4,0.4);
#73=CARTESIAN_POINT('',(0.0,5.800000000000001,1.899999999999999));
#74=VERTEX_POINT('',#73);
#75=CARTESIAN_POINT('',(0.0,0.0,1.899999999999999));
#76=DIRECTION('',(0.0,0.0,1.0));
#77=DIRECTION('',(0.0,-1.0,0.0));
#78=AXIS2_PLACEMENT_3D('',#75,#76,#77);
#79=CIRCLE('',#78,5.800000000000001);
#80=EDGE_CURVE('',#74,#74,#79,.T.);
#81=ORIENTED_EDGE('',*,*,#80,.T.);
#82=EDGE_LOOP('',(#81));
#83=FACE_OUTER_BOUND('',#82,.T.);
#84=CARTESIAN_POINT('',(1.322575E-015,5.4,1.499999999999999));
#85=VERTEX_POINT('',#84);
#86=CARTESIAN_POINT('',(0.0,0.0,1.499999999999999));
#87=DIRECTION('',(0.0,0.0,-1.0));
#88=DIRECTION('',(0.0,-1.0,0.0));
#89=AXIS2_PLACEMENT_3D('',#86,#87,#88);
#90=CIRCLE('',#89,5.4);
#91=EDGE_CURVE('',#85,#85,#90,.T.);
#92=ORIENTED_EDGE('',*,*,#91,.T.);
#93=EDGE_LOOP('',(#92));
#94=FACE_BOUND('',#93,.T.);
#95=ADVANCED_FACE('',(#83,#94),#72,.F.);
#96=CARTESIAN_POINT('',(0.0,2.9,1.499999999999999));
#97=DIRECTION('',(0.0,0.0,-1.0));
#98=DIRECTION('',(-1.0,0.0,0.0));
#99=AXIS2_PLACEMENT_3D('',#96,#97,#98);
#100=PLANE('',#99);
#101=ORIENTED_EDGE('',*,*,#91,.F.);
#102=EDGE_LOOP('',(#101));
#103=FACE_OUTER_BOUND('',#102,.T.);
#104=CARTESIAN_POINT('',(-4.898425E-016,-3.999999999999999,1.499999999999999));
#105=VERTEX_POINT('',#104);
#106=CARTESIAN_POINT('',(0.0,0.0,1.499999999999999));
#107=DIRECTION('',(0.0,0.0,-1.0));
#108=DIRECTION('',(0.0,1.0,0.0));
#109=AXIS2_PLACEMENT_3D('',#106,#107,#108);
#110=CIRCLE('',#109,3.999999999999999);
#111=EDGE_CURVE('',#105,#105,#110,.T.);
#112=ORIENTED_EDGE('',*,*,#111,.T.);
#113=EDGE_LOOP('',(#112));
#114=FACE_BOUND('',#113,.T.);
#115=ADVANCED_FACE('',(#103,#114),#100,.F.);
#116=CARTESIAN_POINT('',(0.0,0.0,3.5));
#117=DIRECTION('',(0.0,0.0,1.0));
#118=DIRECTION('',(0.0,1.0,0.0));
#119=AXIS2_PLACEMENT_3D('',#116,#117,#118);
#120=CYLINDRICAL_SURFACE('',#119,5.800000000000001);
#121=CARTESIAN_POINT('',(0.0,5.8,5.5));
#122=VERTEX_POINT('',#121);
#123=CARTESIAN_POINT('',(0.0,0.0,5.5));
#124=DIRECTION('',(0.0,0.0,1.0));
#125=DIRECTION('',(0.0,1.0,0.0));
#126=AXIS2_PLACEMENT_3D('',#123,#124,#125);
#127=CIRCLE('',#126,5.8);
#128=EDGE_CURVE('',#122,#122,#127,.T.);
#129=ORIENTED_EDGE('',*,*,#128,.T.);
#130=EDGE_LOOP('',(#129));
#131=FACE_OUTER_BOUND('',#130,.T.);
#132=ORIENTED_EDGE('',*,*,#80,.F.);
#133=EDGE_LOOP('',(#132));
#134=FACE_BOUND('',#133,.T.);
#135=ADVANCED_FACE('',(#131,#134),#120,.F.);
#136=CARTESIAN_POINT('',(0.0,0.0,-5.4));
#137=DIRECTION('',(0.0,0.0,-1.0));
#138=DIRECTION('',(1.0,0.0,0.0));
#139=AXIS2_PLACEMENT_3D('',#136,#137,#138);
#140=CONICAL_SURFACE('',#139,3.600000000000001,45.000000000000007);
#141=CARTESIAN_POINT('',(-3.5,-4.286122E-016,-5.300000000000001));
#142=VERTEX_POINT('',#141);
#143=CARTESIAN_POINT('',(0.0,0.0,-5.300000000000001));
#144=DIRECTION('',(0.0,0.0,1.0));
#145=DIRECTION('',(1.0,0.0,0.0));
#146=AXIS2_PLACEMENT_3D('',#143,#144,#145);
#147=CIRCLE('',#146,3.5);
#148=EDGE_CURVE('',#142,#142,#147,.T.);
#149=ORIENTED_EDGE('',*,*,#148,.T.);
#150=EDGE_LOOP('',(#149));
#151=FACE_OUTER_BOUND('',#150,.T.);
#152=CARTESIAN_POINT('',(-3.700000000000001,4.531044E-016,-5.5));
#153=VERTEX_POINT('',#152);
#154=CARTESIAN_POINT('',(0.0,0.0,-5.5));
#155=DIRECTION('',(0.0,0.0,-1.0));
#156=DIRECTION('',(1.0,0.0,0.0));
#157=AXIS2_PLACEMENT_3D('',#154,#155,#156);
#158=CIRCLE('',#157,3.700000000000001);
#159=EDGE_CURVE('',#153,#153,#158,.T.);
#160=ORIENTED_EDGE('',*,*,#159,.T.);
#161=EDGE_LOOP('',(#160));
#162=FACE_BOUND('',#161,.T.);
#163=ADVANCED_FACE('',(#151,#162),#140,.F.);
#164=CARTESIAN_POINT('',(0.0,0.0,18.185438564654024));
#165=DIRECTION('',(0.0,0.0,-1.0));
#166=DIRECTION('',(-1.0,0.0,0.0));
#167=AXIS2_PLACEMENT_3D('',#164,#165,#166);
#168=CYLINDRICAL_SURFACE('',#167,3.5);
#169=CARTESIAN_POINT('',(3.5,4.286122E-016,1.211324865405188));
#170=VERTEX_POINT('',#169);
#171=CARTESIAN_POINT('',(0.0,0.0,1.211324865405188));
#172=DIRECTION('',(0.0,0.0,1.0));
#173=DIRECTION('',(-1.0,0.0,0.0));
#174=AXIS2_PLACEMENT_3D('',#171,#172,#173);
#175=CIRCLE('',#174,3.5);
#176=EDGE_CURVE('',#170,#170,#175,.T.);
#177=ORIENTED_EDGE('',*,*,#176,.T.);
#178=EDGE_LOOP('',(#177));
#179=FACE_OUTER_BOUND('',#178,.T.);
#180=ORIENTED_EDGE('',*,*,#148,.F.);
#181=EDGE_LOOP('',(#180));
#182=FACE_BOUND('',#181,.T.);
#183=ADVANCED_FACE('',(#179,#182),#168,.F.);
#184=CARTESIAN_POINT('',(0.0,0.0,-5.5));
#185=DIRECTION('',(0.0,0.0,1.0));
#186=DIRECTION('',(1.0,0.0,0.0));
#187=AXIS2_PLACEMENT_3D('',#184,#185,#186);
#188=PLANE('',#187);
#189=CARTESIAN_POINT('',(0.0,5.272649730810375,-5.5));
#190=VERTEX_POINT('',#189);
#191=CARTESIAN_POINT('',(0.0,0.0,-5.5));
#192=DIRECTION('',(0.0,0.0,-1.0));
#193=DIRECTION('',(0.0,1.0,0.0));
#194=AXIS2_PLACEMENT_3D('',#191,#192,#193);
#195=CIRCLE('',#194,5.272649730810375);
#196=EDGE_CURVE('',#190,#190,#195,.T.);
#197=ORIENTED_EDGE('',*,*,#196,.T.);
#198=EDGE_LOOP('',(#197));
#199=FACE_OUTER_BOUND('',#198,.T.);
#200=ORIENTED_EDGE('',*,*,#159,.F.);
#201=EDGE_LOOP('',(#200));
#202=FACE_BOUND('',#201,.T.);
#203=ADVANCED_FACE('',(#199,#202),#188,.F.);
#204=CARTESIAN_POINT('',(0.0,0.0,1.661581366486324));
#205=DIRECTION('',(0.0,0.0,1.0));
#206=DIRECTION('',(0.0,1.0,0.0));
#207=AXIS2_PLACEMENT_3D('',#204,#205,#206);
#208=CONICAL_SURFACE('',#207,4.27986713631072,59.999999999999972);
#209=ORIENTED_EDGE('',*,*,#176,.F.);
#210=EDGE_LOOP('',(#209));
#211=FACE_OUTER_BOUND('',#210,.T.);
#212=ORIENTED_EDGE('',*,*,#111,.F.);
#213=EDGE_LOOP('',(#212));
#214=FACE_BOUND('',#213,.T.);
#215=ADVANCED_FACE('',(#211,#214),#208,.F.);
#216=CARTESIAN_POINT('',(0.0,0.0,7.4));
#217=DIRECTION('',(0.0,0.0,-1.0));
#218=DIRECTION('',(-1.0,0.0,0.0));
#219=AXIS2_PLACEMENT_3D('',#216,#217,#218);
#220=CONICAL_SURFACE('',#219,6.9,45.000000000000007);
#221=CARTESIAN_POINT('',(6.800000000000001,-8.327323E-016,7.5));
#222=VERTEX_POINT('',#221);
#223=CARTESIAN_POINT('',(0.0,0.0,7.5));
#224=DIRECTION('',(0.0,0.0,-1.0));
#225=DIRECTION('',(-1.0,0.0,0.0));
#226=AXIS2_PLACEMENT_3D('',#223,#224,#225);
#227=CIRCLE('',#226,6.800000000000001);
#228=EDGE_CURVE('',#222,#222,#227,.T.);
#229=ORIENTED_EDGE('',*,*,#228,.T.);
#230=EDGE_LOOP('',(#229));
#231=FACE_OUTER_BOUND('',#230,.T.);
#232=CARTESIAN_POINT('',(7.000000000000001,8.572244E-016,7.3));
#233=VERTEX_POINT('',#232);
#234=CARTESIAN_POINT('',(0.0,0.0,7.3));
#235=DIRECTION('',(0.0,0.0,1.0));
#236=DIRECTION('',(-1.0,0.0,0.0));
#237=AXIS2_PLACEMENT_3D('',#234,#235,#236);
#238=CIRCLE('',#237,7.000000000000001);
#239=EDGE_CURVE('',#233,#233,#238,.T.);
#240=ORIENTED_EDGE('',*,*,#239,.T.);
#241=EDGE_LOOP('',(#240));
#242=FACE_BOUND('',#241,.T.);
#243=ADVANCED_FACE('',(#231,#242),#220,.T.);
#244=CARTESIAN_POINT('',(0.0,0.0,0.0));
#245=DIRECTION('',(0.0,0.0,1.0));
#246=DIRECTION('',(-1.0,0.0,0.0));
#247=AXIS2_PLACEMENT_3D('',#244,#245,#246);
#248=CYLINDRICAL_SURFACE('',#247,7.000000000000001);
#249=CARTESIAN_POINT('',(7.000000000000001,-8.572244E-016,0.2));
#250=VERTEX_POINT('',#249);
#251=CARTESIAN_POINT('',(0.0,0.0,0.2));
#252=DIRECTION('',(0.0,0.0,-1.0));
#253=DIRECTION('',(-1.0,0.0,0.0));
#254=AXIS2_PLACEMENT_3D('',#251,#252,#253);
#255=CIRCLE('',#254,7.000000000000001);
#256=EDGE_CURVE('',#250,#250,#255,.T.);
#257=ORIENTED_EDGE('',*,*,#256,.F.);
#258=EDGE_LOOP('',(#257));
#259=FACE_OUTER_BOUND('',#258,.T.);
#260=ORIENTED_EDGE('',*,*,#239,.F.);
#261=EDGE_LOOP('',(#260));
#262=FACE_BOUND('',#261,.T.);
#263=ADVANCED_FACE('',(#259,#262),#248,.T.);
#264=CARTESIAN_POINT('',(0.0,0.0,7.5));
#265=DIRECTION('',(0.0,0.0,-1.0));
#266=DIRECTION('',(-1.0,0.0,0.0));
#267=AXIS2_PLACEMENT_3D('',#264,#265,#266);
#268=PLANE('',#267);
#269=ORIENTED_EDGE('',*,*,#228,.F.);
#270=EDGE_LOOP('',(#269));
#271=FACE_OUTER_BOUND('',#270,.T.);
#272=CARTESIAN_POINT('',(0.0,6.392820323027549,7.5));
#273=VERTEX_POINT('',#272);
#274=CARTESIAN_POINT('',(0.0,0.0,7.5));
#275=DIRECTION('',(0.0,0.0,-1.0));
#276=DIRECTION('',(0.0,1.0,0.0));
#277=AXIS2_PLACEMENT_3D('',#274,#275,#276);
#278=CIRCLE('',#277,6.392820323027549);
#279=EDGE_CURVE('',#273,#273,#278,.T.);
#280=ORIENTED_EDGE('',*,*,#279,.T.);
#281=EDGE_LOOP('',(#280));
#282=FACE_BOUND('',#281,.T.);
#283=ADVANCED_FACE('',(#271,#282),#268,.F.);
#284=CARTESIAN_POINT('',(0.0,0.0,0.1));
#285=DIRECTION('',(0.0,0.0,1.0));
#286=DIRECTION('',(-1.0,0.0,0.0));
#287=AXIS2_PLACEMENT_3D('',#284,#285,#286);
#288=CONICAL_SURFACE('',#287,6.9,45.000000000000021);
#289=ORIENTED_EDGE('',*,*,#256,.T.);
#290=EDGE_LOOP('',(#289));
#291=FACE_OUTER_BOUND('',#290,.T.);
#292=CARTESIAN_POINT('',(6.800000000000001,8.327323E-016,0.0));
#293=VERTEX_POINT('',#292);
#294=CARTESIAN_POINT('',(0.0,0.0,0.0));
#295=DIRECTION('',(0.0,0.0,1.0));
#296=DIRECTION('',(-1.0,0.0,0.0));
#297=AXIS2_PLACEMENT_3D('',#294,#295,#296);
#298=CIRCLE('',#297,6.800000000000001);
#299=EDGE_CURVE('',#293,#293,#298,.T.);
#300=ORIENTED_EDGE('',*,*,#299,.T.);
#301=EDGE_LOOP('',(#300));
#302=FACE_BOUND('',#301,.T.);
#303=ADVANCED_FACE('',(#291,#302),#288,.T.);
#304=CARTESIAN_POINT('',(0.0,0.0,0.0));
#305=DIRECTION('',(0.0,0.0,-1.0));
#306=DIRECTION('',(-1.0,0.0,0.0));
#307=AXIS2_PLACEMENT_3D('',#304,#305,#306);
#308=PLANE('',#307);
#309=ORIENTED_EDGE('',*,*,#299,.F.);
#310=EDGE_LOOP('',(#309));
#311=FACE_OUTER_BOUND('',#310,.T.);
#312=CARTESIAN_POINT('',(-5.85,7.163947E-016,0.0));
#313=VERTEX_POINT('',#312);
#314=CARTESIAN_POINT('',(0.0,0.0,0.0));
#315=DIRECTION('',(0.0,0.0,1.0));
#316=DIRECTION('',(1.0,0.0,0.0));
#317=AXIS2_PLACEMENT_3D('',#314,#315,#316);
#318=CIRCLE('',#317,5.85);
#319=EDGE_CURVE('',#313,#313,#318,.T.);
#320=ORIENTED_EDGE('',*,*,#319,.T.);
#321=EDGE_LOOP('',(#320));
#322=FACE_BOUND('',#321,.T.);
#323=ADVANCED_FACE('',(#311,#322),#308,.T.);
#324=CARTESIAN_POINT('',(0.0,0.0,-1.390673326026342));
#325=DIRECTION('',(0.0,0.0,1.0));
#326=DIRECTION('',(0.0,1.0,0.0));
#327=AXIS2_PLACEMENT_3D('',#324,#325,#326);
#328=CONICAL_SURFACE('',#327,5.675,29.999999999999996);
#329=CARTESIAN_POINT('',(0.0,5.5,-1.693782217350894));
#330=VERTEX_POINT('',#329);
#331=CARTESIAN_POINT('',(0.0,0.0,-1.693782217350894));
#332=DIRECTION('',(0.0,0.0,1.0));
#333=DIRECTION('',(0.0,1.0,0.0));
#334=AXIS2_PLACEMENT_3D('',#331,#332,#333);
#335=CIRCLE('',#334,5.5);
#336=EDGE_CURVE('',#330,#330,#335,.T.);
#337=ORIENTED_EDGE('',*,*,#336,.T.);
#338=EDGE_LOOP('',(#337));
#339=FACE_OUTER_BOUND('',#338,.T.);
#340=CARTESIAN_POINT('',(0.0,5.85,-1.087564434701789));
#341=VERTEX_POINT('',#340);
#342=CARTESIAN_POINT('',(0.0,0.0,-1.087564434701789));
#343=DIRECTION('',(0.0,0.0,1.0));
#344=DIRECTION('',(1.0,0.0,0.0));
#345=AXIS2_PLACEMENT_3D('',#342,#343,#344);
#346=CIRCLE('',#345,5.85);
#347=EDGE_CURVE('',#341,#341,#346,.T.);
#348=ORIENTED_EDGE('',*,*,#347,.F.);
#349=EDGE_LOOP('',(#348));
#350=FACE_BOUND('',#349,.T.);
#351=ADVANCED_FACE('',(#339,#350),#328,.T.);
#352=CARTESIAN_POINT('',(0.0,0.0,-2.293782217350894));
#353=DIRECTION('',(0.0,0.0,1.0));
#354=DIRECTION('',(0.0,1.0,0.0));
#355=AXIS2_PLACEMENT_3D('',#352,#353,#354);
#356=CYLINDRICAL_SURFACE('',#355,5.5);
#357=CARTESIAN_POINT('',(0.0,5.5,-2.893782217350895));
#358=VERTEX_POINT('',#357);
#359=CARTESIAN_POINT('',(0.0,0.0,-2.893782217350895));
#360=DIRECTION('',(0.0,0.0,1.0));
#361=DIRECTION('',(0.0,1.0,0.0));
#362=AXIS2_PLACEMENT_3D('',#359,#360,#361);
#363=CIRCLE('',#362,5.5);
#364=EDGE_CURVE('',#358,#358,#363,.T.);
#365=ORIENTED_EDGE('',*,*,#364,.T.);
#366=EDGE_LOOP('',(#365));
#367=FACE_OUTER_BOUND('',#366,.T.);
#368=ORIENTED_EDGE('',*,*,#336,.F.);
#369=EDGE_LOOP('',(#368));
#370=FACE_BOUND('',#369,.T.);
#371=ADVANCED_FACE('',(#367,#370),#356,.T.);
#372=CARTESIAN_POINT('',(0.0,0.0,-3.196891108675448));
#373=DIRECTION('',(0.0,0.0,-1.0));
#374=DIRECTION('',(0.0,1.0,0.0));
#375=AXIS2_PLACEMENT_3D('',#372,#373,#374);
#376=CONICAL_SURFACE('',#375,5.675,29.999999999999964);
#377=CARTESIAN_POINT('',(0.0,5.85,-3.500000000000001));
#378=VERTEX_POINT('',#377);
#379=CARTESIAN_POINT('',(0.0,0.0,-3.500000000000001));
#380=DIRECTION('',(0.0,0.0,-1.0));
#381=DIRECTION('',(1.0,0.0,0.0));
#382=AXIS2_PLACEMENT_3D('',#379,#380,#381);
#383=CIRCLE('',#382,5.85);
#384=EDGE_CURVE('',#378,#378,#383,.T.);
#385=ORIENTED_EDGE('',*,*,#384,.F.);
#386=EDGE_LOOP('',(#385));
#387=FACE_OUTER_BOUND('',#386,.T.);
#388=ORIENTED_EDGE('',*,*,#364,.F.);
#389=EDGE_LOOP('',(#388));
#390=FACE_BOUND('',#389,.T.);
#391=ADVANCED_FACE('',(#387,#390),#376,.T.);
#392=CARTESIAN_POINT('',(0.0,0.0,-5.0));
#393=DIRECTION('',(0.0,0.0,1.0));
#394=DIRECTION('',(0.0,1.0,0.0));
#395=AXIS2_PLACEMENT_3D('',#392,#393,#394);
#396=CONICAL_SURFACE('',#395,5.561324865405187,29.999999999999964);
#397=ORIENTED_EDGE('',*,*,#196,.F.);
#398=EDGE_LOOP('',(#397));
#399=FACE_OUTER_BOUND('',#398,.T.);
#400=CARTESIAN_POINT('',(0.0,5.85,-4.500000000000001));
#401=VERTEX_POINT('',#400);
#402=CARTESIAN_POINT('',(0.0,0.0,-4.5));
#403=DIRECTION('',(0.0,0.0,1.0));
#404=DIRECTION('',(1.0,0.0,0.0));
#405=AXIS2_PLACEMENT_3D('',#402,#403,#404);
#406=CIRCLE('',#405,5.85);
#407=EDGE_CURVE('',#401,#401,#406,.T.);
#408=ORIENTED_EDGE('',*,*,#407,.F.);
#409=EDGE_LOOP('',(#408));
#410=FACE_BOUND('',#409,.T.);
#411=ADVANCED_FACE('',(#399,#410),#396,.T.);
#412=CARTESIAN_POINT('',(0.0,0.0,0.0));
#413=DIRECTION('',(0.0,0.0,-1.0));
#414=DIRECTION('',(1.0,0.0,0.0));
#415=AXIS2_PLACEMENT_3D('',#412,#413,#414);
#416=CYLINDRICAL_SURFACE('',#415,5.85);
#417=ORIENTED_EDGE('',*,*,#407,.T.);
#418=EDGE_LOOP('',(#417));
#419=FACE_OUTER_BOUND('',#418,.T.);
#420=ORIENTED_EDGE('',*,*,#384,.T.);
#421=EDGE_LOOP('',(#420));
#422=FACE_BOUND('',#421,.T.);
#423=ADVANCED_FACE('',(#419,#422),#416,.T.);
#424=CARTESIAN_POINT('',(0.0,5.75,5.5));
#425=DIRECTION('',(0.0,0.0,1.0));
#426=DIRECTION('',(1.0,0.0,0.0));
#427=AXIS2_PLACEMENT_3D('',#424,#425,#426);
#428=PLANE('',#427);
#429=ORIENTED_EDGE('',*,*,#128,.F.);
#430=EDGE_LOOP('',(#429));
#431=FACE_OUTER_BOUND('',#430,.T.);
#432=CARTESIAN_POINT('',(0.0,5.699999999999999,5.5));
#433=VERTEX_POINT('',#432);
#434=CARTESIAN_POINT('',(0.0,0.0,5.5));
#435=DIRECTION('',(0.0,0.0,1.0));
#436=DIRECTION('',(0.0,1.0,0.0));
#437=AXIS2_PLACEMENT_3D('',#434,#435,#436);
#438=CIRCLE('',#437,5.699999999999999);
#439=EDGE_CURVE('',#433,#433,#438,.T.);
#440=ORIENTED_EDGE('',*,*,#439,.T.);
#441=EDGE_LOOP('',(#440));
#442=FACE_BOUND('',#441,.T.);
#443=ADVANCED_FACE('',(#431,#442),#428,.F.);
#444=CARTESIAN_POINT('',(0.0,0.0,5.9));
#445=DIRECTION('',(0.0,0.0,1.0));
#446=DIRECTION('',(0.0,1.0,0.0));
#447=AXIS2_PLACEMENT_3D('',#444,#445,#446);
#448=CYLINDRICAL_SURFACE('',#447,5.699999999999999);
#449=CARTESIAN_POINT('',(0.0,5.699999999999999,6.3));
#450=VERTEX_POINT('',#449);
#451=CARTESIAN_POINT('',(0.0,0.0,6.3));
#452=DIRECTION('',(0.0,0.0,1.0));
#453=DIRECTION('',(0.0,1.0,0.0));
#454=AXIS2_PLACEMENT_3D('',#451,#452,#453);
#455=CIRCLE('',#454,5.699999999999999);
#456=EDGE_CURVE('',#450,#450,#455,.T.);
#457=ORIENTED_EDGE('',*,*,#456,.T.);
#458=EDGE_LOOP('',(#457));
#459=FACE_OUTER_BOUND('',#458,.T.);
#460=ORIENTED_EDGE('',*,*,#439,.F.);
#461=EDGE_LOOP('',(#460));
#462=FACE_BOUND('',#461,.T.);
#463=ADVANCED_FACE('',(#459,#462),#448,.F.);
#464=CARTESIAN_POINT('',(0.0,0.0,6.9));
#465=DIRECTION('',(0.0,0.0,1.0));
#466=DIRECTION('',(0.0,1.0,0.0));
#467=AXIS2_PLACEMENT_3D('',#464,#465,#466);
#468=CONICAL_SURFACE('',#467,6.046410161513775,29.999999999999964);
#469=ORIENTED_EDGE('',*,*,#279,.F.);
#470=EDGE_LOOP('',(#469));
#471=FACE_OUTER_BOUND('',#470,.T.);
#472=ORIENTED_EDGE('',*,*,#456,.F.);
#473=EDGE_LOOP('',(#472));
#474=FACE_BOUND('',#473,.T.);
#475=ADVANCED_FACE('',(#471,#474),#468,.F.);
#476=CARTESIAN_POINT('',(0.0,0.0,0.0));
#477=DIRECTION('',(0.0,0.0,-1.0));
#478=DIRECTION('',(1.0,0.0,0.0));
#479=AXIS2_PLACEMENT_3D('',#476,#477,#478);
#480=CYLINDRICAL_SURFACE('',#479,5.85);
#481=ORIENTED_EDGE('',*,*,#347,.T.);
#482=EDGE_LOOP('',(#481));
#483=FACE_OUTER_BOUND('',#482,.T.);
#484=ORIENTED_EDGE('',*,*,#319,.F.);
#485=EDGE_LOOP('',(#484));
#486=FACE_BOUND('',#485,.T.);
#487=ADVANCED_FACE('',(#483,#486),#480,.T.);
#488=CLOSED_SHELL('',(#95,#115,#135,#163,#183,#203,#215,#243,#263,#283,#303,#323,#351,#371,#391,#411,#423,#443,#463,#475,#487));
#489=MANIFOLD_SOLID_BREP('T\X2\011B\X0\leso1',#488);
#490=DRAUGHTING_PRE_DEFINED_COLOUR('black');
#491=FILL_AREA_STYLE_COLOUR('\X2\FFFD\X0\ern\X2\FFFD\X0\',#490);
#492=FILL_AREA_STYLE('\X2\FFFD\X0\ern\X2\FFFD\X0\',(#491));
#493=SURFACE_STYLE_FILL_AREA(#492);
#494=SURFACE_SIDE_STYLE('\X2\FFFD\X0\ern\X2\FFFD\X0\',(#493));
#495=SURFACE_STYLE_USAGE(.BOTH.,#494);
#496=PRESENTATION_STYLE_ASSIGNMENT((#495));
#497=STYLED_ITEM('',(#496),#489);
#498=MECHANICAL_DESIGN_GEOMETRIC_PRESENTATION_REPRESENTATION('',(#497),#36);
#499=ADVANCED_BREP_SHAPE_REPRESENTATION('ABSR',(#489),#36);
#500=SHAPE_REPRESENTATION_RELATIONSHIP('SRR','None',#499,#41);
ENDSEC;
END-ISO-10303-21;
