ISO-10303-21;
HEADER;
/****************************************************************
 * Generated by software with PDElib inside                    *
 * PDElib Version v51a, created Wed 07/06/2011                  *
 * ITI Transcendata (http://www.transcendata.com/)              *
 ****************************************************************/
FILE_DESCRIPTION((''),'2;1');
FILE_NAME('J:\\prilohy\\modely\\6286411903.stp','2015-09-25T10:31:30',('Ji\X2\FFFDFFFD\X0\'),(''),'Autodesk Inventor 2012','Autodesk Inventor 2012','');
FILE_SCHEMA(('AUTOMOTIVE_DESIGN { 1 0 10303 214 1 1 1 1 }'));
ENDSEC;
DATA;
#5=APPLICATION_CONTEXT('automotive design');
#6=APPLICATION_PROTOCOL_DEFINITION('International Standard','automotive_design',2001,#5);
#7=PRODUCT_CONTEXT('',#5,'mechanical');
#8=PRODUCT('6286411903','6286411903',$,(#7));
#9=PRODUCT_RELATED_PRODUCT_CATEGORY('part',$,(#8));
#10=PRODUCT_DEFINITION_FORMATION('',$,#8);
#11=PRODUCT_DEFINITION_CONTEXT('part definition',#5,'design');
#12=PRODUCT_DEFINITION('',$,#10,#11);
#18=(NAMED_UNIT(*)PLANE_ANGLE_UNIT()SI_UNIT($,.RADIAN.));
#19=DIMENSIONAL_EXPONENTS(0.0,0.0,0.0,0.0,0.0,0.0,0.0);
#20=PLANE_ANGLE_MEASURE_WITH_UNIT(PLANE_ANGLE_MEASURE(0.0174532925),#18);
#24=(CONVERSION_BASED_UNIT('DEGREE',#20)NAMED_UNIT(#19)PLANE_ANGLE_UNIT());
#28=(NAMED_UNIT(*)SI_UNIT($,.STERADIAN.)SOLID_ANGLE_UNIT());
#32=(LENGTH_UNIT()NAMED_UNIT(*)SI_UNIT(.MILLI.,.METRE.));
#34=UNCERTAINTY_MEASURE_WITH_UNIT(LENGTH_MEASURE(0.01),#32,'DISTANCE_ACCURACY_VALUE','');
#36=(GEOMETRIC_REPRESENTATION_CONTEXT(3)GLOBAL_UNCERTAINTY_ASSIGNED_CONTEXT((#34))GLOBAL_UNIT_ASSIGNED_CONTEXT((#24,#28,#32))REPRESENTATION_CONTEXT('None','None'));
#37=AXIS2_PLACEMENT_3D('',#38,#39,#40);
#38=CARTESIAN_POINT('',(0.0,0.0,0.0));
#39=DIRECTION('',(0.0,0.0,1.0));
#40=DIRECTION('',(1.0,0.0,0.0));
#41=SHAPE_REPRESENTATION('',(#37),#36);
#42=PRODUCT_DEFINITION_SHAPE('','',#12);
#43=SHAPE_DEFINITION_REPRESENTATION(#42,#41);
#49=(NAMED_UNIT(*)PLANE_ANGLE_UNIT()SI_UNIT($,.RADIAN.));
#50=DIMENSIONAL_EXPONENTS(0.0,0.0,0.0,0.0,0.0,0.0,0.0);
#51=PLANE_ANGLE_MEASURE_WITH_UNIT(PLANE_ANGLE_MEASURE(0.0174532925),#49);
#55=(CONVERSION_BASED_UNIT('DEGREE',#51)NAMED_UNIT(#50)PLANE_ANGLE_UNIT());
#59=(NAMED_UNIT(*)SI_UNIT($,.STERADIAN.)SOLID_ANGLE_UNIT());
#63=(LENGTH_UNIT()NAMED_UNIT(*)SI_UNIT(.MILLI.,.METRE.));
#65=UNCERTAINTY_MEASURE_WITH_UNIT(LENGTH_MEASURE(0.000001),#63,'DISTANCE_ACCURACY_VALUE','');
#67=(GEOMETRIC_REPRESENTATION_CONTEXT(3)GLOBAL_UNCERTAINTY_ASSIGNED_CONTEXT((#65))GLOBAL_UNIT_ASSIGNED_CONTEXT((#55,#59,#63))REPRESENTATION_CONTEXT('','3D'));
#68=CARTESIAN_POINT('',(0.0,0.0,-17.899999999999999));
#69=DIRECTION('',(0.0,0.0,-1.0));
#70=DIRECTION('',(1.0,0.0,0.0));
#71=AXIS2_PLACEMENT_3D('',#68,#69,#70);
#72=CONICAL_SURFACE('',#71,2.850000000000001,45.000000000000007);
#73=CARTESIAN_POINT('',(-2.75,-3.367667E-016,-17.800000000000001));
#74=VERTEX_POINT('',#73);
#75=CARTESIAN_POINT('',(0.0,0.0,-17.800000000000001));
#76=DIRECTION('',(0.0,0.0,1.0));
#77=DIRECTION('',(1.0,0.0,0.0));
#78=AXIS2_PLACEMENT_3D('',#75,#76,#77);
#79=CIRCLE('',#78,2.75);
#80=EDGE_CURVE('',#74,#74,#79,.T.);
#81=ORIENTED_EDGE('',*,*,#80,.T.);
#82=EDGE_LOOP('',(#81));
#83=FACE_OUTER_BOUND('',#82,.T.);
#84=CARTESIAN_POINT('',(-2.95,3.612589E-016,-18.0));
#85=VERTEX_POINT('',#84);
#86=CARTESIAN_POINT('',(0.0,0.0,-18.0));
#87=DIRECTION('',(0.0,0.0,-1.0));
#88=DIRECTION('',(1.0,0.0,0.0));
#89=AXIS2_PLACEMENT_3D('',#86,#87,#88);
#90=CIRCLE('',#89,2.95);
#91=EDGE_CURVE('',#85,#85,#90,.T.);
#92=ORIENTED_EDGE('',*,*,#91,.T.);
#93=EDGE_LOOP('',(#92));
#94=FACE_BOUND('',#93,.T.);
#95=ADVANCED_FACE('',(#83,#94),#72,.F.);
#96=CARTESIAN_POINT('',(0.0,0.0,16.091787867461573));
#97=DIRECTION('',(0.0,0.0,-1.0));
#98=DIRECTION('',(-1.0,0.0,0.0));
#99=AXIS2_PLACEMENT_3D('',#96,#97,#98);
#100=CYLINDRICAL_SURFACE('',#99,2.75);
#101=CARTESIAN_POINT('',(2.75,-3.367667E-016,0.499999999999998));
#102=VERTEX_POINT('',#101);
#103=CARTESIAN_POINT('',(0.0,0.0,0.499999999999998));
#104=DIRECTION('',(0.0,0.0,-1.0));
#105=DIRECTION('',(-1.0,0.0,0.0));
#106=AXIS2_PLACEMENT_3D('',#103,#104,#105);
#107=CIRCLE('',#106,2.75);
#108=EDGE_CURVE('',#102,#102,#107,.T.);
#109=ORIENTED_EDGE('',*,*,#108,.F.);
#110=EDGE_LOOP('',(#109));
#111=FACE_OUTER_BOUND('',#110,.T.);
#112=ORIENTED_EDGE('',*,*,#80,.F.);
#113=EDGE_LOOP('',(#112));
#114=FACE_BOUND('',#113,.T.);
#115=ADVANCED_FACE('',(#111,#114),#100,.F.);
#116=CARTESIAN_POINT('',(0.0,0.0,-18.0));
#117=DIRECTION('',(0.0,0.0,1.0));
#118=DIRECTION('',(1.0,0.0,0.0));
#119=AXIS2_PLACEMENT_3D('',#116,#117,#118);
#120=PLANE('',#119);
#121=CARTESIAN_POINT('',(-4.898425E-016,4.000000000000001,-18.0));
#122=VERTEX_POINT('',#121);
#123=CARTESIAN_POINT('',(0.0,0.0,-18.0));
#124=DIRECTION('',(0.0,0.0,1.0));
#125=DIRECTION('',(0.0,-1.0,0.0));
#126=AXIS2_PLACEMENT_3D('',#123,#124,#125);
#127=CIRCLE('',#126,4.000000000000001);
#128=EDGE_CURVE('',#122,#122,#127,.T.);
#129=ORIENTED_EDGE('',*,*,#128,.F.);
#130=EDGE_LOOP('',(#129));
#131=FACE_OUTER_BOUND('',#130,.T.);
#132=ORIENTED_EDGE('',*,*,#91,.F.);
#133=EDGE_LOOP('',(#132));
#134=FACE_BOUND('',#133,.T.);
#135=ADVANCED_FACE('',(#131,#134),#120,.F.);
#136=CARTESIAN_POINT('',(0.0,0.0,1.9));
#137=DIRECTION('',(0.0,0.0,1.0));
#138=DIRECTION('',(1.0,0.0,0.0));
#139=AXIS2_PLACEMENT_3D('',#136,#137,#138);
#140=TOROIDAL_SURFACE('',#139,5.4,0.4);
#141=CARTESIAN_POINT('',(5.8,0.0,1.9));
#142=VERTEX_POINT('',#141);
#143=CARTESIAN_POINT('',(0.0,0.0,1.9));
#144=DIRECTION('',(0.0,0.0,1.0));
#145=DIRECTION('',(-1.0,0.0,0.0));
#146=AXIS2_PLACEMENT_3D('',#143,#144,#145);
#147=CIRCLE('',#146,5.8);
#148=EDGE_CURVE('',#142,#142,#147,.T.);
#149=ORIENTED_EDGE('',*,*,#148,.T.);
#150=EDGE_LOOP('',(#149));
#151=FACE_OUTER_BOUND('',#150,.T.);
#152=CARTESIAN_POINT('',(5.4,-1.322575E-015,1.499999999999999));
#153=VERTEX_POINT('',#152);
#154=CARTESIAN_POINT('',(0.0,0.0,1.499999999999999));
#155=DIRECTION('',(0.0,0.0,-1.0));
#156=DIRECTION('',(-1.0,0.0,0.0));
#157=AXIS2_PLACEMENT_3D('',#154,#155,#156);
#158=CIRCLE('',#157,5.4);
#159=EDGE_CURVE('',#153,#153,#158,.T.);
#160=ORIENTED_EDGE('',*,*,#159,.T.);
#161=EDGE_LOOP('',(#160));
#162=FACE_BOUND('',#161,.T.);
#163=ADVANCED_FACE('',(#151,#162),#140,.F.);
#164=CARTESIAN_POINT('',(0.0,0.0,1.499999999999999));
#165=DIRECTION('',(0.0,0.0,1.0));
#166=DIRECTION('',(1.0,0.0,0.0));
#167=AXIS2_PLACEMENT_3D('',#164,#165,#166);
#168=PLANE('',#167);
#169=ORIENTED_EDGE('',*,*,#159,.F.);
#170=EDGE_LOOP('',(#169));
#171=FACE_OUTER_BOUND('',#170,.T.);
#172=CARTESIAN_POINT('',(4.482050807568877,5.488748E-016,1.499999999999999));
#173=VERTEX_POINT('',#172);
#174=CARTESIAN_POINT('',(0.0,0.0,1.499999999999999));
#175=DIRECTION('',(0.0,0.0,1.0));
#176=DIRECTION('',(-1.0,0.0,0.0));
#177=AXIS2_PLACEMENT_3D('',#174,#175,#176);
#178=CIRCLE('',#177,4.482050807568877);
#179=EDGE_CURVE('',#173,#173,#178,.T.);
#180=ORIENTED_EDGE('',*,*,#179,.F.);
#181=EDGE_LOOP('',(#180));
#182=FACE_BOUND('',#181,.T.);
#183=ADVANCED_FACE('',(#171,#182),#168,.T.);
#184=CARTESIAN_POINT('',(0.0,0.0,4.5));
#185=DIRECTION('',(0.0,0.0,1.0));
#186=DIRECTION('',(1.0,0.0,0.0));
#187=AXIS2_PLACEMENT_3D('',#184,#185,#186);
#188=CYLINDRICAL_SURFACE('',#187,5.8);
#189=CARTESIAN_POINT('',(0.0,5.8,5.5));
#190=VERTEX_POINT('',#189);
#191=CARTESIAN_POINT('',(0.0,0.0,5.5));
#192=DIRECTION('',(0.0,0.0,1.0));
#193=DIRECTION('',(1.0,0.0,0.0));
#194=AXIS2_PLACEMENT_3D('',#191,#192,#193);
#195=CIRCLE('',#194,5.8);
#196=EDGE_CURVE('',#190,#190,#195,.T.);
#197=ORIENTED_EDGE('',*,*,#196,.T.);
#198=EDGE_LOOP('',(#197));
#199=FACE_OUTER_BOUND('',#198,.T.);
#200=ORIENTED_EDGE('',*,*,#148,.F.);
#201=EDGE_LOOP('',(#200));
#202=FACE_BOUND('',#201,.T.);
#203=ADVANCED_FACE('',(#199,#202),#188,.F.);
#204=CARTESIAN_POINT('',(0.0,0.0,-0.4));
#205=DIRECTION('',(0.0,0.0,1.0));
#206=DIRECTION('',(1.0,0.0,0.0));
#207=AXIS2_PLACEMENT_3D('',#204,#205,#206);
#208=TOROIDAL_SURFACE('',#207,4.4,0.4);
#209=CARTESIAN_POINT('',(-4.0,-4.898425E-016,-0.4));
#210=VERTEX_POINT('',#209);
#211=CARTESIAN_POINT('',(0.0,0.0,-0.4));
#212=DIRECTION('',(0.0,0.0,1.0));
#213=DIRECTION('',(1.0,0.0,0.0));
#214=AXIS2_PLACEMENT_3D('',#211,#212,#213);
#215=CIRCLE('',#214,4.0);
#216=EDGE_CURVE('',#210,#210,#215,.T.);
#217=ORIENTED_EDGE('',*,*,#216,.T.);
#218=EDGE_LOOP('',(#217));
#219=FACE_OUTER_BOUND('',#218,.T.);
#220=CARTESIAN_POINT('',(-4.4,5.388268E-016,0.0));
#221=VERTEX_POINT('',#220);
#222=CARTESIAN_POINT('',(0.0,0.0,0.0));
#223=DIRECTION('',(0.0,0.0,-1.0));
#224=DIRECTION('',(1.0,0.0,0.0));
#225=AXIS2_PLACEMENT_3D('',#222,#223,#224);
#226=CIRCLE('',#225,4.4);
#227=EDGE_CURVE('',#221,#221,#226,.T.);
#228=ORIENTED_EDGE('',*,*,#227,.T.);
#229=EDGE_LOOP('',(#228));
#230=FACE_BOUND('',#229,.T.);
#231=ADVANCED_FACE('',(#219,#230),#208,.F.);
#232=CARTESIAN_POINT('',(0.0,0.0,0.0));
#233=DIRECTION('',(0.0,0.0,-1.0));
#234=DIRECTION('',(1.0,0.0,0.0));
#235=AXIS2_PLACEMENT_3D('',#232,#233,#234);
#236=CYLINDRICAL_SURFACE('',#235,4.0);
#237=CARTESIAN_POINT('',(0.0,4.0,-5.085635545777427));
#238=VERTEX_POINT('',#237);
#239=CARTESIAN_POINT('',(0.0,0.0,-5.085635545777427));
#240=DIRECTION('',(0.0,0.0,1.0));
#241=DIRECTION('',(1.0,0.0,0.0));
#242=AXIS2_PLACEMENT_3D('',#239,#240,#241);
#243=CIRCLE('',#242,4.0);
#244=EDGE_CURVE('',#238,#238,#243,.T.);
#245=ORIENTED_EDGE('',*,*,#244,.T.);
#246=EDGE_LOOP('',(#245));
#247=FACE_OUTER_BOUND('',#246,.T.);
#248=ORIENTED_EDGE('',*,*,#216,.F.);
#249=EDGE_LOOP('',(#248));
#250=FACE_BOUND('',#249,.T.);
#251=ADVANCED_FACE('',(#247,#250),#236,.T.);
#252=CARTESIAN_POINT('',(0.0,0.0,0.0));
#253=DIRECTION('',(0.0,0.0,-1.0));
#254=DIRECTION('',(-1.0,0.0,0.0));
#255=AXIS2_PLACEMENT_3D('',#252,#253,#254);
#256=PLANE('',#255);
#257=CARTESIAN_POINT('',(7.5,9.184548E-016,0.0));
#258=VERTEX_POINT('',#257);
#259=CARTESIAN_POINT('',(0.0,0.0,0.0));
#260=DIRECTION('',(0.0,0.0,1.0));
#261=DIRECTION('',(-1.0,0.0,0.0));
#262=AXIS2_PLACEMENT_3D('',#259,#260,#261);
#263=CIRCLE('',#262,7.5);
#264=EDGE_CURVE('',#258,#258,#263,.T.);
#265=ORIENTED_EDGE('',*,*,#264,.F.);
#266=EDGE_LOOP('',(#265));
#267=FACE_OUTER_BOUND('',#266,.T.);
#268=ORIENTED_EDGE('',*,*,#227,.F.);
#269=EDGE_LOOP('',(#268));
#270=FACE_BOUND('',#269,.T.);
#271=ADVANCED_FACE('',(#267,#270),#256,.T.);
#272=CARTESIAN_POINT('',(0.0,0.0,0.999999999999999));
#273=DIRECTION('',(0.0,0.0,1.0));
#274=DIRECTION('',(-1.0,0.0,0.0));
#275=AXIS2_PLACEMENT_3D('',#272,#273,#274);
#276=CONICAL_SURFACE('',#275,3.616025403784438,59.999999999999972);
#277=ORIENTED_EDGE('',*,*,#108,.T.);
#278=EDGE_LOOP('',(#277));
#279=FACE_OUTER_BOUND('',#278,.T.);
#280=ORIENTED_EDGE('',*,*,#179,.T.);
#281=EDGE_LOOP('',(#280));
#282=FACE_BOUND('',#281,.T.);
#283=ADVANCED_FACE('',(#279,#282),#276,.F.);
#284=CARTESIAN_POINT('',(0.0,0.0,-17.75));
#285=DIRECTION('',(0.0,0.0,1.0));
#286=DIRECTION('',(0.0,-1.0,0.0));
#287=AXIS2_PLACEMENT_3D('',#284,#285,#286);
#288=CONICAL_SURFACE('',#287,4.25,44.99999999999995);
#289=CARTESIAN_POINT('',(5.510729E-016,4.5,-17.5));
#290=VERTEX_POINT('',#289);
#291=CARTESIAN_POINT('',(0.0,0.0,-17.499999999999996));
#292=DIRECTION('',(0.0,0.0,-1.0));
#293=DIRECTION('',(0.0,-1.0,0.0));
#294=AXIS2_PLACEMENT_3D('',#291,#292,#293);
#295=CIRCLE('',#294,4.5);
#296=EDGE_CURVE('',#290,#290,#295,.T.);
#297=ORIENTED_EDGE('',*,*,#296,.T.);
#298=EDGE_LOOP('',(#297));
#299=FACE_OUTER_BOUND('',#298,.T.);
#300=ORIENTED_EDGE('',*,*,#128,.T.);
#301=EDGE_LOOP('',(#300));
#302=FACE_BOUND('',#301,.T.);
#303=ADVANCED_FACE('',(#299,#302),#288,.T.);
#304=CARTESIAN_POINT('',(0.0,0.0,-17.400000000000002));
#305=DIRECTION('',(0.0,0.0,-1.0));
#306=DIRECTION('',(0.0,1.0,0.0));
#307=AXIS2_PLACEMENT_3D('',#304,#305,#306);
#308=CYLINDRICAL_SURFACE('',#307,4.5);
#309=CARTESIAN_POINT('',(0.0,4.5,-16.800000000000001));
#310=VERTEX_POINT('',#309);
#311=CARTESIAN_POINT('',(0.0,0.0,-16.800000000000001));
#312=DIRECTION('',(0.0,0.0,-1.0));
#313=DIRECTION('',(0.0,1.0,0.0));
#314=AXIS2_PLACEMENT_3D('',#311,#312,#313);
#315=CIRCLE('',#314,4.5);
#316=EDGE_CURVE('',#310,#310,#315,.T.);
#317=ORIENTED_EDGE('',*,*,#316,.T.);
#318=EDGE_LOOP('',(#317));
#319=FACE_OUTER_BOUND('',#318,.T.);
#320=ORIENTED_EDGE('',*,*,#296,.F.);
#321=EDGE_LOOP('',(#320));
#322=FACE_BOUND('',#321,.T.);
#323=ADVANCED_FACE('',(#319,#322),#308,.T.);
#324=CARTESIAN_POINT('',(0.0,4.499999999999999,-5.085635545777427));
#325=DIRECTION('',(0.0,0.0,1.0));
#326=DIRECTION('',(1.0,0.0,0.0));
#327=AXIS2_PLACEMENT_3D('',#324,#325,#326);
#328=PLANE('',#327);
#329=CARTESIAN_POINT('',(0.0,4.999999999999998,-5.085635545777427));
#330=VERTEX_POINT('',#329);
#331=CARTESIAN_POINT('',(0.0,0.0,-5.085635545777427));
#332=DIRECTION('',(0.0,0.0,-1.0));
#333=DIRECTION('',(0.0,1.0,0.0));
#334=AXIS2_PLACEMENT_3D('',#331,#332,#333);
#335=CIRCLE('',#334,4.999999999999998);
#336=EDGE_CURVE('',#330,#330,#335,.T.);
#337=ORIENTED_EDGE('',*,*,#336,.F.);
#338=EDGE_LOOP('',(#337));
#339=FACE_OUTER_BOUND('',#338,.T.);
#340=ORIENTED_EDGE('',*,*,#244,.F.);
#341=EDGE_LOOP('',(#340));
#342=FACE_BOUND('',#341,.T.);
#343=ADVANCED_FACE('',(#339,#342),#328,.T.);
#344=CARTESIAN_POINT('',(0.0,0.0,-5.585635545777428));
#345=DIRECTION('',(0.0,0.0,-1.0));
#346=DIRECTION('',(0.0,1.0,0.0));
#347=AXIS2_PLACEMENT_3D('',#344,#345,#346);
#348=CYLINDRICAL_SURFACE('',#347,4.999999999999998);
#349=CARTESIAN_POINT('',(0.0,4.999999999999998,-6.085635545777426));
#350=VERTEX_POINT('',#349);
#351=CARTESIAN_POINT('',(0.0,0.0,-6.085635545777426));
#352=DIRECTION('',(0.0,0.0,-1.0));
#353=DIRECTION('',(0.0,1.0,0.0));
#354=AXIS2_PLACEMENT_3D('',#351,#352,#353);
#355=CIRCLE('',#354,4.999999999999998);
#356=EDGE_CURVE('',#350,#350,#355,.T.);
#357=ORIENTED_EDGE('',*,*,#356,.F.);
#358=EDGE_LOOP('',(#357));
#359=FACE_OUTER_BOUND('',#358,.T.);
#360=ORIENTED_EDGE('',*,*,#336,.T.);
#361=EDGE_LOOP('',(#360));
#362=FACE_BOUND('',#361,.T.);
#363=ADVANCED_FACE('',(#359,#362),#348,.T.);
#364=CARTESIAN_POINT('',(0.0,0.0,-8.464226659333068));
#365=DIRECTION('',(0.0,0.0,1.0));
#366=DIRECTION('',(0.0,1.0,0.0));
#367=AXIS2_PLACEMENT_3D('',#364,#365,#366);
#368=CONICAL_SURFACE('',#367,4.749999999999998,5.999999999999992);
#369=CARTESIAN_POINT('',(0.0,4.5,-10.842817772888708));
#370=VERTEX_POINT('',#369);
#371=CARTESIAN_POINT('',(0.0,0.0,-10.842817772888708));
#372=DIRECTION('',(0.0,0.0,-1.0));
#373=DIRECTION('',(0.0,1.0,0.0));
#374=AXIS2_PLACEMENT_3D('',#371,#372,#373);
#375=CIRCLE('',#374,4.5);
#376=EDGE_CURVE('',#370,#370,#375,.T.);
#377=ORIENTED_EDGE('',*,*,#376,.F.);
#378=EDGE_LOOP('',(#377));
#379=FACE_OUTER_BOUND('',#378,.T.);
#380=ORIENTED_EDGE('',*,*,#356,.T.);
#381=EDGE_LOOP('',(#380));
#382=FACE_BOUND('',#381,.T.);
#383=ADVANCED_FACE('',(#379,#382),#368,.T.);
#384=CARTESIAN_POINT('',(0.0,0.0,-10.942817772888709));
#385=DIRECTION('',(0.0,0.0,-1.0));
#386=DIRECTION('',(0.0,1.0,0.0));
#387=AXIS2_PLACEMENT_3D('',#384,#385,#386);
#388=CYLINDRICAL_SURFACE('',#387,4.5);
#389=CARTESIAN_POINT('',(0.0,4.5,-11.042817772888709));
#390=VERTEX_POINT('',#389);
#391=CARTESIAN_POINT('',(0.0,0.0,-11.042817772888709));
#392=DIRECTION('',(0.0,0.0,-1.0));
#393=DIRECTION('',(0.0,1.0,0.0));
#394=AXIS2_PLACEMENT_3D('',#391,#392,#393);
#395=CIRCLE('',#394,4.5);
#396=EDGE_CURVE('',#390,#390,#395,.T.);
#397=ORIENTED_EDGE('',*,*,#396,.F.);
#398=EDGE_LOOP('',(#397));
#399=FACE_OUTER_BOUND('',#398,.T.);
#400=ORIENTED_EDGE('',*,*,#376,.T.);
#401=EDGE_LOOP('',(#400));
#402=FACE_BOUND('',#401,.T.);
#403=ADVANCED_FACE('',(#399,#402),#388,.T.);
#404=CARTESIAN_POINT('',(0.0,4.749999999999999,-11.042817772888709));
#405=DIRECTION('',(0.0,0.0,1.0));
#406=DIRECTION('',(1.0,0.0,0.0));
#407=AXIS2_PLACEMENT_3D('',#404,#405,#406);
#408=PLANE('',#407);
#409=CARTESIAN_POINT('',(0.0,4.999999999999999,-11.042817772888709));
#410=VERTEX_POINT('',#409);
#411=CARTESIAN_POINT('',(0.0,0.0,-11.042817772888709));
#412=DIRECTION('',(0.0,0.0,-1.0));
#413=DIRECTION('',(0.0,1.0,0.0));
#414=AXIS2_PLACEMENT_3D('',#411,#412,#413);
#415=CIRCLE('',#414,4.999999999999999);
#416=EDGE_CURVE('',#410,#410,#415,.T.);
#417=ORIENTED_EDGE('',*,*,#416,.F.);
#418=EDGE_LOOP('',(#417));
#419=FACE_OUTER_BOUND('',#418,.T.);
#420=ORIENTED_EDGE('',*,*,#396,.T.);
#421=EDGE_LOOP('',(#420));
#422=FACE_BOUND('',#421,.T.);
#423=ADVANCED_FACE('',(#419,#422),#408,.T.);
#424=CARTESIAN_POINT('',(0.0,0.0,-11.542817772888709));
#425=DIRECTION('',(0.0,0.0,-1.0));
#426=DIRECTION('',(0.0,1.0,0.0));
#427=AXIS2_PLACEMENT_3D('',#424,#425,#426);
#428=CYLINDRICAL_SURFACE('',#427,4.999999999999999);
#429=CARTESIAN_POINT('',(0.0,4.999999999999999,-12.042817772888711));
#430=VERTEX_POINT('',#429);
#431=CARTESIAN_POINT('',(0.0,0.0,-12.042817772888711));
#432=DIRECTION('',(0.0,0.0,-1.0));
#433=DIRECTION('',(0.0,1.0,0.0));
#434=AXIS2_PLACEMENT_3D('',#431,#432,#433);
#435=CIRCLE('',#434,4.999999999999999);
#436=EDGE_CURVE('',#430,#430,#435,.T.);
#437=ORIENTED_EDGE('',*,*,#436,.F.);
#438=EDGE_LOOP('',(#437));
#439=FACE_OUTER_BOUND('',#438,.T.);
#440=ORIENTED_EDGE('',*,*,#416,.T.);
#441=EDGE_LOOP('',(#440));
#442=FACE_BOUND('',#441,.T.);
#443=ADVANCED_FACE('',(#439,#442),#428,.T.);
#444=CARTESIAN_POINT('',(0.0,0.0,-14.421408886444356));
#445=DIRECTION('',(0.0,0.0,1.0));
#446=DIRECTION('',(0.0,1.0,0.0));
#447=AXIS2_PLACEMENT_3D('',#444,#445,#446);
#448=CONICAL_SURFACE('',#447,4.75,6.0);
#449=ORIENTED_EDGE('',*,*,#316,.F.);
#450=EDGE_LOOP('',(#449));
#451=FACE_OUTER_BOUND('',#450,.T.);
#452=ORIENTED_EDGE('',*,*,#436,.T.);
#453=EDGE_LOOP('',(#452));
#454=FACE_BOUND('',#453,.T.);
#455=ADVANCED_FACE('',(#451,#454),#448,.T.);
#456=CARTESIAN_POINT('',(0.0,5.750000000000001,5.5));
#457=DIRECTION('',(0.0,0.0,-1.0));
#458=DIRECTION('',(-1.0,0.0,0.0));
#459=AXIS2_PLACEMENT_3D('',#456,#457,#458);
#460=PLANE('',#459);
#461=ORIENTED_EDGE('',*,*,#196,.F.);
#462=EDGE_LOOP('',(#461));
#463=FACE_OUTER_BOUND('',#462,.T.);
#464=CARTESIAN_POINT('',(0.0,5.700000000000002,5.5));
#465=VERTEX_POINT('',#464);
#466=CARTESIAN_POINT('',(0.0,0.0,5.5));
#467=DIRECTION('',(0.0,0.0,-1.0));
#468=DIRECTION('',(0.0,1.0,0.0));
#469=AXIS2_PLACEMENT_3D('',#466,#467,#468);
#470=CIRCLE('',#469,5.700000000000002);
#471=EDGE_CURVE('',#465,#465,#470,.T.);
#472=ORIENTED_EDGE('',*,*,#471,.F.);
#473=EDGE_LOOP('',(#472));
#474=FACE_BOUND('',#473,.T.);
#475=ADVANCED_FACE('',(#463,#474),#460,.T.);
#476=CARTESIAN_POINT('',(0.0,0.0,5.9));
#477=DIRECTION('',(0.0,0.0,-1.0));
#478=DIRECTION('',(0.0,1.0,0.0));
#479=AXIS2_PLACEMENT_3D('',#476,#477,#478);
#480=CYLINDRICAL_SURFACE('',#479,5.700000000000001);
#481=CARTESIAN_POINT('',(0.0,5.699999999999999,6.3));
#482=VERTEX_POINT('',#481);
#483=CARTESIAN_POINT('',(0.0,0.0,6.3));
#484=DIRECTION('',(0.0,0.0,-1.0));
#485=DIRECTION('',(0.0,1.0,0.0));
#486=AXIS2_PLACEMENT_3D('',#483,#484,#485);
#487=CIRCLE('',#486,5.699999999999999);
#488=EDGE_CURVE('',#482,#482,#487,.T.);
#489=ORIENTED_EDGE('',*,*,#488,.F.);
#490=EDGE_LOOP('',(#489));
#491=FACE_OUTER_BOUND('',#490,.T.);
#492=ORIENTED_EDGE('',*,*,#471,.T.);
#493=EDGE_LOOP('',(#492));
#494=FACE_BOUND('',#493,.T.);
#495=ADVANCED_FACE('',(#491,#494),#480,.F.);
#496=CARTESIAN_POINT('',(0.0,0.0,6.386602540378446));
#497=DIRECTION('',(0.0,0.0,1.0));
#498=DIRECTION('',(0.0,1.0,0.0));
#499=AXIS2_PLACEMENT_3D('',#496,#497,#498);
#500=CONICAL_SURFACE('',#499,5.75,29.999999999999748);
#501=CARTESIAN_POINT('',(0.0,6.392820323027547,7.5));
#502=VERTEX_POINT('',#501);
#503=CARTESIAN_POINT('',(0.0,0.0,7.5));
#504=DIRECTION('',(0.0,0.0,-1.0));
#505=DIRECTION('',(0.0,1.0,0.0));
#506=AXIS2_PLACEMENT_3D('',#503,#504,#505);
#507=CIRCLE('',#506,6.392820323027547);
#508=EDGE_CURVE('',#502,#502,#507,.T.);
#509=ORIENTED_EDGE('',*,*,#508,.F.);
#510=EDGE_LOOP('',(#509));
#511=FACE_OUTER_BOUND('',#510,.T.);
#512=ORIENTED_EDGE('',*,*,#488,.T.);
#513=EDGE_LOOP('',(#512));
#514=FACE_BOUND('',#513,.T.);
#515=ADVANCED_FACE('',(#511,#514),#500,.F.);
#516=CARTESIAN_POINT('',(0.0,0.0,7.25));
#517=DIRECTION('',(0.0,0.0,-1.0));
#518=DIRECTION('',(-1.0,0.0,0.0));
#519=AXIS2_PLACEMENT_3D('',#516,#517,#518);
#520=CONICAL_SURFACE('',#519,7.75,44.999999999999993);
#521=CARTESIAN_POINT('',(7.5,-9.184548E-016,7.5));
#522=VERTEX_POINT('',#521);
#523=CARTESIAN_POINT('',(0.0,0.0,7.5));
#524=DIRECTION('',(0.0,0.0,-1.0));
#525=DIRECTION('',(-1.0,0.0,0.0));
#526=AXIS2_PLACEMENT_3D('',#523,#524,#525);
#527=CIRCLE('',#526,7.5);
#528=EDGE_CURVE('',#522,#522,#527,.T.);
#529=ORIENTED_EDGE('',*,*,#528,.T.);
#530=EDGE_LOOP('',(#529));
#531=FACE_OUTER_BOUND('',#530,.T.);
#532=CARTESIAN_POINT('',(8.0,9.796851E-016,7.0));
#533=VERTEX_POINT('',#532);
#534=CARTESIAN_POINT('',(0.0,0.0,7.0));
#535=DIRECTION('',(0.0,0.0,1.0));
#536=DIRECTION('',(-1.0,0.0,0.0));
#537=AXIS2_PLACEMENT_3D('',#534,#535,#536);
#538=CIRCLE('',#537,8.0);
#539=EDGE_CURVE('',#533,#533,#538,.T.);
#540=ORIENTED_EDGE('',*,*,#539,.T.);
#541=EDGE_LOOP('',(#540));
#542=FACE_BOUND('',#541,.T.);
#543=ADVANCED_FACE('',(#531,#542),#520,.T.);
#544=CARTESIAN_POINT('',(0.0,0.0,0.0));
#545=DIRECTION('',(0.0,0.0,1.0));
#546=DIRECTION('',(-1.0,0.0,0.0));
#547=AXIS2_PLACEMENT_3D('',#544,#545,#546);
#548=CYLINDRICAL_SURFACE('',#547,8.0);
#549=CARTESIAN_POINT('',(8.0,-9.796851E-016,0.5));
#550=VERTEX_POINT('',#549);
#551=CARTESIAN_POINT('',(0.0,0.0,0.5));
#552=DIRECTION('',(0.0,0.0,-1.0));
#553=DIRECTION('',(-1.0,0.0,0.0));
#554=AXIS2_PLACEMENT_3D('',#551,#552,#553);
#555=CIRCLE('',#554,8.0);
#556=EDGE_CURVE('',#550,#550,#555,.T.);
#557=ORIENTED_EDGE('',*,*,#556,.F.);
#558=EDGE_LOOP('',(#557));
#559=FACE_OUTER_BOUND('',#558,.T.);
#560=ORIENTED_EDGE('',*,*,#539,.F.);
#561=EDGE_LOOP('',(#560));
#562=FACE_BOUND('',#561,.T.);
#563=ADVANCED_FACE('',(#559,#562),#548,.T.);
#564=CARTESIAN_POINT('',(0.0,0.0,7.5));
#565=DIRECTION('',(0.0,0.0,-1.0));
#566=DIRECTION('',(-1.0,0.0,0.0));
#567=AXIS2_PLACEMENT_3D('',#564,#565,#566);
#568=PLANE('',#567);
#569=ORIENTED_EDGE('',*,*,#528,.F.);
#570=EDGE_LOOP('',(#569));
#571=FACE_OUTER_BOUND('',#570,.T.);
#572=ORIENTED_EDGE('',*,*,#508,.T.);
#573=EDGE_LOOP('',(#572));
#574=FACE_BOUND('',#573,.T.);
#575=ADVANCED_FACE('',(#571,#574),#568,.F.);
#576=CARTESIAN_POINT('',(0.0,0.0,0.25));
#577=DIRECTION('',(0.0,0.0,1.0));
#578=DIRECTION('',(-1.0,0.0,0.0));
#579=AXIS2_PLACEMENT_3D('',#576,#577,#578);
#580=CONICAL_SURFACE('',#579,7.75,45.000000000000028);
#581=ORIENTED_EDGE('',*,*,#556,.T.);
#582=EDGE_LOOP('',(#581));
#583=FACE_OUTER_BOUND('',#582,.T.);
#584=ORIENTED_EDGE('',*,*,#264,.T.);
#585=EDGE_LOOP('',(#584));
#586=FACE_BOUND('',#585,.T.);
#587=ADVANCED_FACE('',(#583,#586),#580,.T.);
#588=CLOSED_SHELL('',(#95,#115,#135,#163,#183,#203,#231,#251,#271,#283,#303,#323,#343,#363,#383,#403,#423,#443,#455,#475,#495,#515,#543,#563,#575,#587));
#589=MANIFOLD_SOLID_BREP('T\X2\011B\X0\leso1',#588);
#590=DRAUGHTING_PRE_DEFINED_COLOUR('black');
#591=FILL_AREA_STYLE_COLOUR('\X2\FFFD\X0\ern\X2\FFFD\X0\',#590);
#592=FILL_AREA_STYLE('\X2\FFFD\X0\ern\X2\FFFD\X0\',(#591));
#593=SURFACE_STYLE_FILL_AREA(#592);
#594=SURFACE_SIDE_STYLE('\X2\FFFD\X0\ern\X2\FFFD\X0\',(#593));
#595=SURFACE_STYLE_USAGE(.BOTH.,#594);
#596=PRESENTATION_STYLE_ASSIGNMENT((#595));
#597=STYLED_ITEM('',(#596),#589);
#598=MECHANICAL_DESIGN_GEOMETRIC_PRESENTATION_REPRESENTATION('',(#597),#36);
#599=ADVANCED_BREP_SHAPE_REPRESENTATION('ABSR',(#589),#36);
#600=SHAPE_REPRESENTATION_RELATIONSHIP('SRR','None',#599,#41);
ENDSEC;
END-ISO-10303-21;
