ISO-10303-21;
HEADER;
/****************************************************************
 * Generated by software with PDElib inside                    *
 * PDElib Version v51a, created Wed 07/06/2011                  *
 * ITI Transcendata (http://www.transcendata.com/)              *
 ****************************************************************/
FILE_DESCRIPTION((''),'2;1');
FILE_NAME('j:\\prilohy\\modely\\340014.stp','2014-10-15T14:21:54',(''),('KNOMI spol. s r. o.'),'Autodesk Inventor 2012','Autodesk Inventor 2012','');
FILE_SCHEMA(('AUTOMOTIVE_DESIGN { 1 2 10303 214 0 1 1 1 }'));
ENDSEC;
DATA;
#5=APPLICATION_CONTEXT('automotive design');
#6=APPLICATION_PROTOCOL_DEFINITION('Draft International Standard','automotive_design',1998,#5);
#7=PRODUCT_CONTEXT('None',#5,'mechanical');
#8=PRODUCT('MX 8L / 6S','MX 8L / 6S','None',(#7));
#9=PRODUCT_RELATED_PRODUCT_CATEGORY('part','description',(#8));
#10=PRODUCT_DEFINITION_FORMATION('None','None',#8);
#11=PRODUCT_DEFINITION_CONTEXT('part definition',#5,'design');
#12=PRODUCT_DEFINITION('None','None',#10,#11);
#18=(NAMED_UNIT(*)PLANE_ANGLE_UNIT()SI_UNIT($,.RADIAN.));
#19=DIMENSIONAL_EXPONENTS(0.0,0.0,0.0,0.0,0.0,0.0,0.0);
#20=PLANE_ANGLE_MEASURE_WITH_UNIT(PLANE_ANGLE_MEASURE(0.0174532925),#18);
#24=(CONVERSION_BASED_UNIT('DEGREE',#20)NAMED_UNIT(#19)PLANE_ANGLE_UNIT());
#28=(NAMED_UNIT(*)SI_UNIT($,.STERADIAN.)SOLID_ANGLE_UNIT());
#32=(LENGTH_UNIT()NAMED_UNIT(*)SI_UNIT(.MILLI.,.METRE.));
#34=UNCERTAINTY_MEASURE_WITH_UNIT(LENGTH_MEASURE(0.01),#32,'DISTANCE_ACCURACY_VALUE','');
#36=(GEOMETRIC_REPRESENTATION_CONTEXT(3)GLOBAL_UNCERTAINTY_ASSIGNED_CONTEXT((#34))GLOBAL_UNIT_ASSIGNED_CONTEXT((#24,#28,#32))REPRESENTATION_CONTEXT('None','None'));
#37=AXIS2_PLACEMENT_3D('',#38,#39,#40);
#38=CARTESIAN_POINT('',(0.0,0.0,0.0));
#39=DIRECTION('',(0.0,0.0,1.0));
#40=DIRECTION('',(1.0,0.0,0.0));
#41=SHAPE_REPRESENTATION('',(#37),#36);
#42=PRODUCT_DEFINITION_SHAPE('','',#12);
#43=SHAPE_DEFINITION_REPRESENTATION(#42,#41);
#49=(NAMED_UNIT(*)PLANE_ANGLE_UNIT()SI_UNIT($,.RADIAN.));
#50=DIMENSIONAL_EXPONENTS(0.0,0.0,0.0,0.0,0.0,0.0,0.0);
#51=PLANE_ANGLE_MEASURE_WITH_UNIT(PLANE_ANGLE_MEASURE(0.0174532925),#49);
#55=(CONVERSION_BASED_UNIT('DEGREE',#51)NAMED_UNIT(#50)PLANE_ANGLE_UNIT());
#59=(NAMED_UNIT(*)SI_UNIT($,.STERADIAN.)SOLID_ANGLE_UNIT());
#63=(LENGTH_UNIT()NAMED_UNIT(*)SI_UNIT(.MILLI.,.METRE.));
#65=UNCERTAINTY_MEASURE_WITH_UNIT(LENGTH_MEASURE(0.000001),#63,'DISTANCE_ACCURACY_VALUE','');
#67=(GEOMETRIC_REPRESENTATION_CONTEXT(3)GLOBAL_UNCERTAINTY_ASSIGNED_CONTEXT((#65))GLOBAL_UNIT_ASSIGNED_CONTEXT((#55,#59,#63))REPRESENTATION_CONTEXT('','3D'));
#68=CARTESIAN_POINT('',(-2.220446E-015,0.0,4.500000000000002));
#69=DIRECTION('',(0.0,0.0,1.0));
#70=DIRECTION('',(0.0,-1.0,0.0));
#71=AXIS2_PLACEMENT_3D('',#68,#69,#70);
#72=CONICAL_SURFACE('',#71,5.75,44.999999999999993);
#73=CARTESIAN_POINT('',(6.187999999999999,1.630093E-014,4.938000000000002));
#74=VERTEX_POINT('',#73);
#75=CARTESIAN_POINT('',(-1.387779E-015,1.554312E-014,4.938000000000002));
#76=DIRECTION('',(0.0,0.0,1.0));
#77=DIRECTION('',(-1.0,0.0,0.0));
#78=AXIS2_PLACEMENT_3D('',#75,#76,#77);
#79=CIRCLE('',#78,6.188000000000001);
#80=EDGE_CURVE('',#74,#74,#79,.T.);
#81=ORIENTED_EDGE('',*,*,#80,.F.);
#82=EDGE_LOOP('',(#81));
#83=FACE_OUTER_BOUND('',#82,.T.);
#84=CARTESIAN_POINT('',(-2.220446E-015,-7.249999999999998,6.000000000000001));
#85=VERTEX_POINT('',#84);
#86=CARTESIAN_POINT('',(-2.220446E-015,0.0,6.000000000000001));
#87=DIRECTION('',(0.0,0.0,-1.0));
#88=DIRECTION('',(0.0,-1.0,0.0));
#89=AXIS2_PLACEMENT_3D('',#86,#87,#88);
#90=CIRCLE('',#89,7.249999999999998);
#91=EDGE_CURVE('',#85,#85,#90,.T.);
#92=ORIENTED_EDGE('',*,*,#91,.F.);
#93=EDGE_LOOP('',(#92));
#94=FACE_BOUND('',#93,.T.);
#95=ADVANCED_FACE('',(#83,#94),#72,.F.);
#96=CARTESIAN_POINT('',(-2.220446E-015,0.0,1.500000000000003));
#97=DIRECTION('',(0.0,0.0,-1.0));
#98=DIRECTION('',(0.0,-1.0,0.0));
#99=AXIS2_PLACEMENT_3D('',#96,#97,#98);
#100=CONICAL_SURFACE('',#99,5.75,44.999999999999993);
#101=CARTESIAN_POINT('',(6.187999999999999,1.478531E-014,1.062000000000003));
#102=VERTEX_POINT('',#101);
#103=CARTESIAN_POINT('',(-1.387779E-015,1.554312E-014,1.062000000000003));
#104=DIRECTION('',(0.0,0.0,-1.0));
#105=DIRECTION('',(-1.0,0.0,0.0));
#106=AXIS2_PLACEMENT_3D('',#103,#104,#105);
#107=CIRCLE('',#106,6.188000000000001);
#108=EDGE_CURVE('',#102,#102,#107,.T.);
#109=ORIENTED_EDGE('',*,*,#108,.F.);
#110=EDGE_LOOP('',(#109));
#111=FACE_OUTER_BOUND('',#110,.T.);
#112=CARTESIAN_POINT('',(-2.220446E-015,-7.249999999999998,3.330669E-015));
#113=VERTEX_POINT('',#112);
#114=CARTESIAN_POINT('',(-2.220446E-015,0.0,0.0));
#115=DIRECTION('',(0.0,0.0,1.0));
#116=DIRECTION('',(0.0,-1.0,0.0));
#117=AXIS2_PLACEMENT_3D('',#114,#115,#116);
#118=CIRCLE('',#117,7.250000000000002);
#119=EDGE_CURVE('',#113,#113,#118,.T.);
#120=ORIENTED_EDGE('',*,*,#119,.F.);
#121=EDGE_LOOP('',(#120));
#122=FACE_BOUND('',#121,.T.);
#123=ADVANCED_FACE('',(#111,#122),#100,.F.);
#124=CARTESIAN_POINT('',(-1.387779E-015,1.554312E-014,29.636688973860316));
#125=DIRECTION('',(0.0,0.0,-1.0));
#126=DIRECTION('',(-1.0,0.0,0.0));
#127=AXIS2_PLACEMENT_3D('',#124,#125,#126);
#128=CYLINDRICAL_SURFACE('',#127,6.188000000000001);
#129=ORIENTED_EDGE('',*,*,#80,.T.);
#130=EDGE_LOOP('',(#129));
#131=FACE_OUTER_BOUND('',#130,.T.);
#132=ORIENTED_EDGE('',*,*,#108,.T.);
#133=EDGE_LOOP('',(#132));
#134=FACE_BOUND('',#133,.T.);
#135=ADVANCED_FACE('',(#131,#134),#128,.F.);
#136=CARTESIAN_POINT('',(-2.220446E-015,0.0,0.196896450555056));
#137=DIRECTION('',(0.0,0.0,1.0));
#138=DIRECTION('',(0.0,1.0,0.0));
#139=AXIS2_PLACEMENT_3D('',#136,#137,#138);
#140=CONICAL_SURFACE('',#139,10.234827557301445,75.000000000000014);
#141=CARTESIAN_POINT('',(4.749999999999995,-8.227241335952169,0.0));
#142=VERTEX_POINT('',#141);
#143=CARTESIAN_POINT('',(9.499999999999998,-5.48482755730144,0.393792901110113));
#144=VERTEX_POINT('',#143);
#145=CARTESIAN_POINT('',(4.749999999999995,-8.227241335952169,0.0));
#146=CARTESIAN_POINT('',(6.95448267190434,-6.95448267190433,-1.864828E-016));
#147=CARTESIAN_POINT('',(9.499999999999996,-5.484827557301446,0.393792901110113));
#155=(BOUNDED_CURVE()B_SPLINE_CURVE(2,(#145,#146,#147),.UNSPECIFIED.,.F.,.U.)B_SPLINE_CURVE_WITH_KNOTS((3,3),(0.550208485851143,1.100416971702286),.UNSPECIFIED.)CURVE()GEOMETRIC_REPRESENTATION_ITEM()RATIONAL_B_SPLINE_CURVE((1.0,1.037954849302039,1.0))REPRESENTATION_ITEM(''));
#156=EDGE_CURVE('',#142,#144,#155,.T.);
#157=ORIENTED_EDGE('',*,*,#156,.F.);
#158=CARTESIAN_POINT('',(9.499999999999996,2.775558E-015,0.0));
#159=VERTEX_POINT('',#158);
#160=CARTESIAN_POINT('',(-2.220446E-015,0.0,0.0));
#161=DIRECTION('',(0.0,0.0,-1.0));
#162=DIRECTION('',(0.0,1.0,0.0));
#163=AXIS2_PLACEMENT_3D('',#160,#161,#162);
#164=CIRCLE('',#163,9.5);
#165=EDGE_CURVE('',#159,#142,#164,.T.);
#166=ORIENTED_EDGE('',*,*,#165,.F.);
#167=CARTESIAN_POINT('',(9.499999999999998,-5.484827557301446,0.393792901110113));
#168=CARTESIAN_POINT('',(9.499999999999996,-2.545517328095664,-5.572799E-016));
#169=CARTESIAN_POINT('',(9.499999999999996,2.775558E-015,0.0));
#177=(BOUNDED_CURVE()B_SPLINE_CURVE(2,(#167,#168,#169),.UNSPECIFIED.,.F.,.U.)B_SPLINE_CURVE_WITH_KNOTS((3,3),(0.0,0.550208485851143),.UNSPECIFIED.)CURVE()GEOMETRIC_REPRESENTATION_ITEM()RATIONAL_B_SPLINE_CURVE((1.0,1.037954849302037,1.0))REPRESENTATION_ITEM(''));
#178=EDGE_CURVE('',#144,#159,#177,.T.);
#179=ORIENTED_EDGE('',*,*,#178,.F.);
#180=EDGE_LOOP('',(#157,#166,#179));
#181=FACE_OUTER_BOUND('',#180,.T.);
#182=ADVANCED_FACE('',(#181),#140,.T.);
#183=CARTESIAN_POINT('',(-2.220446E-015,0.0,0.196896450555056));
#184=DIRECTION('',(0.0,0.0,1.0));
#185=DIRECTION('',(0.0,1.0,0.0));
#186=AXIS2_PLACEMENT_3D('',#183,#184,#185);
#187=CONICAL_SURFACE('',#186,10.234827557301445,75.000000000000014);
#188=CARTESIAN_POINT('',(-4.750000000000002,-8.227241335952165,0.0));
#189=VERTEX_POINT('',#188);
#190=CARTESIAN_POINT('',(-1.665335E-015,-10.969655114602887,0.393792901110113));
#191=VERTEX_POINT('',#190);
#192=CARTESIAN_POINT('',(-4.750000000000002,-8.227241335952165,0.0));
#193=CARTESIAN_POINT('',(-2.545517328095657,-9.500000000000007,1.084202E-017));
#194=CARTESIAN_POINT('',(-2.220446E-015,-10.96965511460289,0.393792901110112));
#202=(BOUNDED_CURVE()B_SPLINE_CURVE(2,(#192,#193,#194),.UNSPECIFIED.,.F.,.U.)B_SPLINE_CURVE_WITH_KNOTS((3,3),(0.550208485851143,1.100416971702286),.UNSPECIFIED.)CURVE()GEOMETRIC_REPRESENTATION_ITEM()RATIONAL_B_SPLINE_CURVE((1.0,1.037954849302034,1.0))REPRESENTATION_ITEM(''));
#203=EDGE_CURVE('',#189,#191,#202,.T.);
#204=ORIENTED_EDGE('',*,*,#203,.F.);
#205=CARTESIAN_POINT('',(-2.220446E-015,0.0,0.0));
#206=DIRECTION('',(0.0,0.0,-1.0));
#207=DIRECTION('',(0.0,1.0,0.0));
#208=AXIS2_PLACEMENT_3D('',#205,#206,#207);
#209=CIRCLE('',#208,9.5);
#210=EDGE_CURVE('',#142,#189,#209,.T.);
#211=ORIENTED_EDGE('',*,*,#210,.F.);
#212=CARTESIAN_POINT('',(-6.980180E-015,-10.96965511460289,0.393792901110113));
#213=CARTESIAN_POINT('',(2.545517328095651,-9.500000000000007,-4.987330E-017));
#214=CARTESIAN_POINT('',(4.749999999999995,-8.227241335952169,0.0));
#222=(BOUNDED_CURVE()B_SPLINE_CURVE(2,(#212,#213,#214),.UNSPECIFIED.,.F.,.U.)B_SPLINE_CURVE_WITH_KNOTS((3,3),(0.0,0.550208485851143),.UNSPECIFIED.)CURVE()GEOMETRIC_REPRESENTATION_ITEM()RATIONAL_B_SPLINE_CURVE((1.0,1.037954849302031,1.0))REPRESENTATION_ITEM(''));
#223=EDGE_CURVE('',#191,#142,#222,.T.);
#224=ORIENTED_EDGE('',*,*,#223,.F.);
#225=EDGE_LOOP('',(#204,#211,#224));
#226=FACE_OUTER_BOUND('',#225,.T.);
#227=ADVANCED_FACE('',(#226),#187,.T.);
#228=CARTESIAN_POINT('',(-2.220446E-015,0.0,0.196896450555056));
#229=DIRECTION('',(0.0,0.0,1.0));
#230=DIRECTION('',(0.0,1.0,0.0));
#231=AXIS2_PLACEMENT_3D('',#228,#229,#230);
#232=CONICAL_SURFACE('',#231,10.234827557301445,75.000000000000014);
#233=CARTESIAN_POINT('',(9.499999999999996,5.484827557301446,0.393792901110113));
#234=VERTEX_POINT('',#233);
#235=CARTESIAN_POINT('',(4.749999999999996,8.227241335952167,0.0));
#236=VERTEX_POINT('',#235);
#237=CARTESIAN_POINT('',(9.499999999999995,5.484827557301449,0.393792901110113));
#238=CARTESIAN_POINT('',(6.954482671904345,6.954482671904328,7.936360E-016));
#239=CARTESIAN_POINT('',(4.749999999999996,8.227241335952167,0.0));
#247=(BOUNDED_CURVE()B_SPLINE_CURVE(2,(#237,#238,#239),.UNSPECIFIED.,.F.,.U.)B_SPLINE_CURVE_WITH_KNOTS((3,3),(0.0,0.550208485851142),.UNSPECIFIED.)CURVE()GEOMETRIC_REPRESENTATION_ITEM()RATIONAL_B_SPLINE_CURVE((1.0,1.037954849302033,1.0))REPRESENTATION_ITEM(''));
#248=EDGE_CURVE('',#234,#236,#247,.T.);
#249=ORIENTED_EDGE('',*,*,#248,.F.);
#250=CARTESIAN_POINT('',(9.499999999999996,2.775558E-015,0.0));
#251=CARTESIAN_POINT('',(9.499999999999996,2.54551732809567,-5.247539E-016));
#252=CARTESIAN_POINT('',(9.499999999999995,5.48482755730145,0.393792901110113));
#260=(BOUNDED_CURVE()B_SPLINE_CURVE(2,(#250,#251,#252),.UNSPECIFIED.,.F.,.U.)B_SPLINE_CURVE_WITH_KNOTS((3,3),(0.550208485851143,1.100416971702286),.UNSPECIFIED.)CURVE()GEOMETRIC_REPRESENTATION_ITEM()RATIONAL_B_SPLINE_CURVE((1.0,1.037954849302042,1.0))REPRESENTATION_ITEM(''));
#261=EDGE_CURVE('',#159,#234,#260,.T.);
#262=ORIENTED_EDGE('',*,*,#261,.F.);
#263=CARTESIAN_POINT('',(-2.220446E-015,0.0,0.0));
#264=DIRECTION('',(0.0,0.0,-1.0));
#265=DIRECTION('',(0.0,1.0,0.0));
#266=AXIS2_PLACEMENT_3D('',#263,#264,#265);
#267=CIRCLE('',#266,9.5);
#268=EDGE_CURVE('',#236,#159,#267,.T.);
#269=ORIENTED_EDGE('',*,*,#268,.F.);
#270=EDGE_LOOP('',(#249,#262,#269));
#271=FACE_OUTER_BOUND('',#270,.T.);
#272=ADVANCED_FACE('',(#271),#232,.T.);
#273=CARTESIAN_POINT('',(-2.220446E-015,0.0,0.196896450555056));
#274=DIRECTION('',(0.0,0.0,1.0));
#275=DIRECTION('',(0.0,1.0,0.0));
#276=AXIS2_PLACEMENT_3D('',#273,#274,#275);
#277=CONICAL_SURFACE('',#276,10.234827557301445,75.000000000000014);
#278=CARTESIAN_POINT('',(-2.220446E-015,10.969655114602887,0.393792901110113));
#279=VERTEX_POINT('',#278);
#280=CARTESIAN_POINT('',(-4.750000000000001,8.227241335952165,0.0));
#281=VERTEX_POINT('',#280);
#282=CARTESIAN_POINT('',(-3.410380E-015,10.96965511460289,0.393792901110113));
#283=CARTESIAN_POINT('',(-2.545517328095661,9.500000000000004,2.168404E-016));
#284=CARTESIAN_POINT('',(-4.750000000000001,8.227241335952165,0.0));
#292=(BOUNDED_CURVE()B_SPLINE_CURVE(2,(#282,#283,#284),.UNSPECIFIED.,.F.,.U.)B_SPLINE_CURVE_WITH_KNOTS((3,3),(0.0,0.550208485851143),.UNSPECIFIED.)CURVE()GEOMETRIC_REPRESENTATION_ITEM()RATIONAL_B_SPLINE_CURVE((1.0,1.037954849302041,1.0))REPRESENTATION_ITEM(''));
#293=EDGE_CURVE('',#279,#281,#292,.T.);
#294=ORIENTED_EDGE('',*,*,#293,.F.);
#295=CARTESIAN_POINT('',(4.749999999999996,8.227241335952167,0.0));
#296=CARTESIAN_POINT('',(2.545517328095649,9.500000000000009,8.695301E-016));
#297=CARTESIAN_POINT('',(-2.815413E-015,10.96965511460289,0.393792901110113));
#305=(BOUNDED_CURVE()B_SPLINE_CURVE(2,(#295,#296,#297),.UNSPECIFIED.,.F.,.U.)B_SPLINE_CURVE_WITH_KNOTS((3,3),(0.550208485851142,1.100416971702285),.UNSPECIFIED.)CURVE()GEOMETRIC_REPRESENTATION_ITEM()RATIONAL_B_SPLINE_CURVE((1.0,1.037954849302034,1.0))REPRESENTATION_ITEM(''));
#306=EDGE_CURVE('',#236,#279,#305,.T.);
#307=ORIENTED_EDGE('',*,*,#306,.F.);
#308=CARTESIAN_POINT('',(-2.220446E-015,0.0,0.0));
#309=DIRECTION('',(0.0,0.0,-1.0));
#310=DIRECTION('',(0.0,1.0,0.0));
#311=AXIS2_PLACEMENT_3D('',#308,#309,#310);
#312=CIRCLE('',#311,9.5);
#313=EDGE_CURVE('',#281,#236,#312,.T.);
#314=ORIENTED_EDGE('',*,*,#313,.F.);
#315=EDGE_LOOP('',(#294,#307,#314));
#316=FACE_OUTER_BOUND('',#315,.T.);
#317=ADVANCED_FACE('',(#316),#277,.T.);
#318=CARTESIAN_POINT('',(-2.220446E-015,0.0,0.196896450555056));
#319=DIRECTION('',(0.0,0.0,1.0));
#320=DIRECTION('',(0.0,1.0,0.0));
#321=AXIS2_PLACEMENT_3D('',#318,#319,#320);
#322=CONICAL_SURFACE('',#321,10.234827557301445,75.000000000000014);
#323=CARTESIAN_POINT('',(-9.5,0.0,0.0));
#324=VERTEX_POINT('',#323);
#325=CARTESIAN_POINT('',(-9.500000000000002,-5.484827557301442,0.393792901110113));
#326=VERTEX_POINT('',#325);
#327=CARTESIAN_POINT('',(-9.5,0.0,0.0));
#328=CARTESIAN_POINT('',(-9.5,-2.545517328095666,-1.283695E-015));
#329=CARTESIAN_POINT('',(-9.5,-5.484827557301449,0.393792901110113));
#337=(BOUNDED_CURVE()B_SPLINE_CURVE(2,(#327,#328,#329),.UNSPECIFIED.,.F.,.U.)B_SPLINE_CURVE_WITH_KNOTS((3,3),(0.550208485851143,1.100416971702286),.UNSPECIFIED.)CURVE()GEOMETRIC_REPRESENTATION_ITEM()RATIONAL_B_SPLINE_CURVE((1.0,1.037954849302042,1.0))REPRESENTATION_ITEM(''));
#338=EDGE_CURVE('',#324,#326,#337,.T.);
#339=ORIENTED_EDGE('',*,*,#338,.F.);
#340=CARTESIAN_POINT('',(-2.220446E-015,0.0,0.0));
#341=DIRECTION('',(0.0,0.0,-1.0));
#342=DIRECTION('',(0.0,1.0,0.0));
#343=AXIS2_PLACEMENT_3D('',#340,#341,#342);
#344=CIRCLE('',#343,9.5);
#345=EDGE_CURVE('',#189,#324,#344,.T.);
#346=ORIENTED_EDGE('',*,*,#345,.F.);
#347=CARTESIAN_POINT('',(-9.500000000000004,-5.484827557301442,0.393792901110113));
#348=CARTESIAN_POINT('',(-6.954482671904344,-6.954482671904328,-4.119968E-016));
#349=CARTESIAN_POINT('',(-4.750000000000002,-8.227241335952165,0.0));
#357=(BOUNDED_CURVE()B_SPLINE_CURVE(2,(#347,#348,#349),.UNSPECIFIED.,.F.,.U.)B_SPLINE_CURVE_WITH_KNOTS((3,3),(0.0,0.550208485851143),.UNSPECIFIED.)CURVE()GEOMETRIC_REPRESENTATION_ITEM()RATIONAL_B_SPLINE_CURVE((1.0,1.037954849302041,1.0))REPRESENTATION_ITEM(''));
#358=EDGE_CURVE('',#326,#189,#357,.T.);
#359=ORIENTED_EDGE('',*,*,#358,.F.);
#360=EDGE_LOOP('',(#339,#346,#359));
#361=FACE_OUTER_BOUND('',#360,.T.);
#362=ADVANCED_FACE('',(#361),#322,.T.);
#363=CARTESIAN_POINT('',(-2.220446E-015,0.0,0.196896450555056));
#364=DIRECTION('',(0.0,0.0,1.0));
#365=DIRECTION('',(0.0,1.0,0.0));
#366=AXIS2_PLACEMENT_3D('',#363,#364,#365);
#367=CONICAL_SURFACE('',#366,10.234827557301445,75.000000000000014);
#368=CARTESIAN_POINT('',(-9.5,5.484827557301445,0.393792901110113));
#369=VERTEX_POINT('',#368);
#370=CARTESIAN_POINT('',(-4.750000000000001,8.227241335952165,0.0));
#371=CARTESIAN_POINT('',(-6.954482671904348,6.954482671904328,2.970714E-016));
#372=CARTESIAN_POINT('',(-9.500000000000002,5.484827557301445,0.393792901110112));
#380=(BOUNDED_CURVE()B_SPLINE_CURVE(2,(#370,#371,#372),.UNSPECIFIED.,.F.,.U.)B_SPLINE_CURVE_WITH_KNOTS((3,3),(0.550208485851143,1.100416971702286),.UNSPECIFIED.)CURVE()GEOMETRIC_REPRESENTATION_ITEM()RATIONAL_B_SPLINE_CURVE((1.0,1.037954849302029,1.0))REPRESENTATION_ITEM(''));
#381=EDGE_CURVE('',#281,#369,#380,.T.);
#382=ORIENTED_EDGE('',*,*,#381,.F.);
#383=CARTESIAN_POINT('',(-2.220446E-015,0.0,0.0));
#384=DIRECTION('',(0.0,0.0,-1.0));
#385=DIRECTION('',(0.0,1.0,0.0));
#386=AXIS2_PLACEMENT_3D('',#383,#384,#385);
#387=CIRCLE('',#386,9.5);
#388=EDGE_CURVE('',#324,#281,#387,.T.);
#389=ORIENTED_EDGE('',*,*,#388,.F.);
#390=CARTESIAN_POINT('',(-9.5,5.484827557301449,0.393792901110113));
#391=CARTESIAN_POINT('',(-9.5,2.545517328095666,-1.283695E-015));
#392=CARTESIAN_POINT('',(-9.5,0.0,0.0));
#400=(BOUNDED_CURVE()B_SPLINE_CURVE(2,(#390,#391,#392),.UNSPECIFIED.,.F.,.U.)B_SPLINE_CURVE_WITH_KNOTS((3,3),(0.0,0.550208485851143),.UNSPECIFIED.)CURVE()GEOMETRIC_REPRESENTATION_ITEM()RATIONAL_B_SPLINE_CURVE((1.0,1.037954849302042,1.0))REPRESENTATION_ITEM(''));
#401=EDGE_CURVE('',#369,#324,#400,.T.);
#402=ORIENTED_EDGE('',*,*,#401,.F.);
#403=EDGE_LOOP('',(#382,#389,#402));
#404=FACE_OUTER_BOUND('',#403,.T.);
#405=ADVANCED_FACE('',(#404),#367,.T.);
#406=CARTESIAN_POINT('',(-9.5,-5.484827557301443,0.0));
#407=DIRECTION('',(-1.0,0.0,0.0));
#408=DIRECTION('',(0.0,0.0,1.0));
#409=AXIS2_PLACEMENT_3D('',#406,#407,#408);
#410=PLANE('',#409);
#411=ORIENTED_EDGE('',*,*,#401,.T.);
#412=ORIENTED_EDGE('',*,*,#338,.T.);
#413=CARTESIAN_POINT('',(-9.5,-5.484827557301443,6.000000000000001));
#414=VERTEX_POINT('',#413);
#415=CARTESIAN_POINT('',(-9.5,-5.484827557301443,0.393792901110113));
#416=DIRECTION('',(0.0,0.0,1.0));
#417=VECTOR('',#416,5.606207098889889);
#418=LINE('',#415,#417);
#419=EDGE_CURVE('',#326,#414,#418,.T.);
#420=ORIENTED_EDGE('',*,*,#419,.T.);
#421=CARTESIAN_POINT('',(-9.5,5.484827557301443,6.000000000000001));
#422=VERTEX_POINT('',#421);
#423=CARTESIAN_POINT('',(-9.5,-5.484827557301443,6.000000000000001));
#424=DIRECTION('',(0.0,1.0,0.0));
#425=VECTOR('',#424,10.969655114602887);
#426=LINE('',#423,#425);
#427=EDGE_CURVE('',#414,#422,#426,.T.);
#428=ORIENTED_EDGE('',*,*,#427,.T.);
#429=CARTESIAN_POINT('',(-9.5,5.484827557301443,0.393792901110113));
#430=DIRECTION('',(0.0,0.0,1.0));
#431=VECTOR('',#430,5.606207098889889);
#432=LINE('',#429,#431);
#433=EDGE_CURVE('',#369,#422,#432,.T.);
#434=ORIENTED_EDGE('',*,*,#433,.F.);
#435=EDGE_LOOP('',(#411,#412,#420,#428,#434));
#436=FACE_OUTER_BOUND('',#435,.T.);
#437=ADVANCED_FACE('',(#436),#410,.T.);
#438=CARTESIAN_POINT('',(-2.220446E-015,-10.969655114602887,0.0));
#439=DIRECTION('',(-0.5,-0.866025403784439,0.0));
#440=DIRECTION('',(0.0,0.0,1.0));
#441=AXIS2_PLACEMENT_3D('',#438,#439,#440);
#442=PLANE('',#441);
#443=ORIENTED_EDGE('',*,*,#358,.T.);
#444=ORIENTED_EDGE('',*,*,#203,.T.);
#445=CARTESIAN_POINT('',(-2.220446E-015,-10.969655114602887,6.000000000000001));
#446=VERTEX_POINT('',#445);
#447=CARTESIAN_POINT('',(-2.220446E-015,-10.969655114602887,0.393792901110113));
#448=DIRECTION('',(0.0,0.0,1.0));
#449=VECTOR('',#448,5.606207098889889);
#450=LINE('',#447,#449);
#451=EDGE_CURVE('',#191,#446,#450,.T.);
#452=ORIENTED_EDGE('',*,*,#451,.T.);
#453=CARTESIAN_POINT('',(-2.220446E-015,-10.969655114602887,6.000000000000001));
#454=DIRECTION('',(-0.866025403784439,0.5,0.0));
#455=VECTOR('',#454,10.96965511460289);
#456=LINE('',#453,#455);
#457=EDGE_CURVE('',#446,#414,#456,.T.);
#458=ORIENTED_EDGE('',*,*,#457,.T.);
#459=ORIENTED_EDGE('',*,*,#419,.F.);
#460=EDGE_LOOP('',(#443,#444,#452,#458,#459));
#461=FACE_OUTER_BOUND('',#460,.T.);
#462=ADVANCED_FACE('',(#461),#442,.T.);
#463=CARTESIAN_POINT('',(9.499999999999998,-5.484827557301446,0.0));
#464=DIRECTION('',(0.5,-0.866025403784439,0.0));
#465=DIRECTION('',(0.0,0.0,-1.0));
#466=AXIS2_PLACEMENT_3D('',#463,#464,#465);
#467=PLANE('',#466);
#468=ORIENTED_EDGE('',*,*,#223,.T.);
#469=ORIENTED_EDGE('',*,*,#156,.T.);
#470=CARTESIAN_POINT('',(9.499999999999998,-5.484827557301446,6.000000000000001));
#471=VERTEX_POINT('',#470);
#472=CARTESIAN_POINT('',(9.499999999999998,-5.484827557301446,0.393792901110113));
#473=DIRECTION('',(0.0,0.0,1.0));
#474=VECTOR('',#473,5.606207098889889);
#475=LINE('',#472,#474);
#476=EDGE_CURVE('',#144,#471,#475,.T.);
#477=ORIENTED_EDGE('',*,*,#476,.T.);
#478=CARTESIAN_POINT('',(9.499999999999998,-5.484827557301446,6.000000000000001));
#479=DIRECTION('',(-0.866025403784439,-0.5,0.0));
#480=VECTOR('',#479,10.96965511460289);
#481=LINE('',#478,#480);
#482=EDGE_CURVE('',#471,#446,#481,.T.);
#483=ORIENTED_EDGE('',*,*,#482,.T.);
#484=ORIENTED_EDGE('',*,*,#451,.F.);
#485=EDGE_LOOP('',(#468,#469,#477,#483,#484));
#486=FACE_OUTER_BOUND('',#485,.T.);
#487=ADVANCED_FACE('',(#486),#467,.T.);
#488=CARTESIAN_POINT('',(-9.5,5.484827557301443,0.0));
#489=DIRECTION('',(-0.5,0.866025403784439,0.0));
#490=DIRECTION('',(0.0,0.0,1.0));
#491=AXIS2_PLACEMENT_3D('',#488,#489,#490);
#492=PLANE('',#491);
#493=ORIENTED_EDGE('',*,*,#381,.T.);
#494=ORIENTED_EDGE('',*,*,#433,.T.);
#495=CARTESIAN_POINT('',(-2.220446E-015,10.969655114602887,6.000000000000001));
#496=VERTEX_POINT('',#495);
#497=CARTESIAN_POINT('',(-9.5,5.484827557301443,6.000000000000001));
#498=DIRECTION('',(0.866025403784439,0.5,0.0));
#499=VECTOR('',#498,10.96965511460289);
#500=LINE('',#497,#499);
#501=EDGE_CURVE('',#422,#496,#500,.T.);
#502=ORIENTED_EDGE('',*,*,#501,.T.);
#503=CARTESIAN_POINT('',(-2.220446E-015,10.969655114602887,0.393792901110113));
#504=DIRECTION('',(0.0,0.0,1.0));
#505=VECTOR('',#504,5.606207098889889);
#506=LINE('',#503,#505);
#507=EDGE_CURVE('',#279,#496,#506,.T.);
#508=ORIENTED_EDGE('',*,*,#507,.F.);
#509=ORIENTED_EDGE('',*,*,#293,.T.);
#510=EDGE_LOOP('',(#493,#494,#502,#508,#509));
#511=FACE_OUTER_BOUND('',#510,.T.);
#512=ADVANCED_FACE('',(#511),#492,.T.);
#513=CARTESIAN_POINT('',(-2.220446E-015,10.969655114602887,0.0));
#514=DIRECTION('',(0.5,0.866025403784439,0.0));
#515=DIRECTION('',(0.0,0.0,1.0));
#516=AXIS2_PLACEMENT_3D('',#513,#514,#515);
#517=PLANE('',#516);
#518=ORIENTED_EDGE('',*,*,#306,.T.);
#519=ORIENTED_EDGE('',*,*,#507,.T.);
#520=CARTESIAN_POINT('',(9.499999999999995,5.484827557301446,6.000000000000001));
#521=VERTEX_POINT('',#520);
#522=CARTESIAN_POINT('',(-2.220446E-015,10.969655114602887,6.000000000000001));
#523=DIRECTION('',(0.866025403784439,-0.5,0.0));
#524=VECTOR('',#523,10.96965511460289);
#525=LINE('',#522,#524);
#526=EDGE_CURVE('',#496,#521,#525,.T.);
#527=ORIENTED_EDGE('',*,*,#526,.T.);
#528=CARTESIAN_POINT('',(9.499999999999995,5.484827557301446,0.393792901110113));
#529=DIRECTION('',(0.0,0.0,1.0));
#530=VECTOR('',#529,5.606207098889889);
#531=LINE('',#528,#530);
#532=EDGE_CURVE('',#234,#521,#531,.T.);
#533=ORIENTED_EDGE('',*,*,#532,.F.);
#534=ORIENTED_EDGE('',*,*,#248,.T.);
#535=EDGE_LOOP('',(#518,#519,#527,#533,#534));
#536=FACE_OUTER_BOUND('',#535,.T.);
#537=ADVANCED_FACE('',(#536),#517,.T.);
#538=CARTESIAN_POINT('',(9.499999999999995,5.484827557301446,0.0));
#539=DIRECTION('',(1.0,0.0,0.0));
#540=DIRECTION('',(0.0,0.0,-1.0));
#541=AXIS2_PLACEMENT_3D('',#538,#539,#540);
#542=PLANE('',#541);
#543=ORIENTED_EDGE('',*,*,#261,.T.);
#544=ORIENTED_EDGE('',*,*,#532,.T.);
#545=CARTESIAN_POINT('',(9.499999999999995,5.484827557301446,6.000000000000001));
#546=DIRECTION('',(0.0,-1.0,0.0));
#547=VECTOR('',#546,10.969655114602892);
#548=LINE('',#545,#547);
#549=EDGE_CURVE('',#521,#471,#548,.T.);
#550=ORIENTED_EDGE('',*,*,#549,.T.);
#551=ORIENTED_EDGE('',*,*,#476,.F.);
#552=ORIENTED_EDGE('',*,*,#178,.T.);
#553=EDGE_LOOP('',(#543,#544,#550,#551,#552));
#554=FACE_OUTER_BOUND('',#553,.T.);
#555=ADVANCED_FACE('',(#554),#542,.T.);
#556=CARTESIAN_POINT('',(-6.938894E-016,0.0,6.000000000000001));
#557=DIRECTION('',(0.0,0.0,1.0));
#558=DIRECTION('',(1.0,0.0,0.0));
#559=AXIS2_PLACEMENT_3D('',#556,#557,#558);
#560=PLANE('',#559);
#561=ORIENTED_EDGE('',*,*,#457,.F.);
#562=ORIENTED_EDGE('',*,*,#482,.F.);
#563=ORIENTED_EDGE('',*,*,#549,.F.);
#564=ORIENTED_EDGE('',*,*,#526,.F.);
#565=ORIENTED_EDGE('',*,*,#501,.F.);
#566=ORIENTED_EDGE('',*,*,#427,.F.);
#567=EDGE_LOOP('',(#561,#562,#563,#564,#565,#566));
#568=FACE_OUTER_BOUND('',#567,.T.);
#569=ORIENTED_EDGE('',*,*,#91,.T.);
#570=EDGE_LOOP('',(#569));
#571=FACE_BOUND('',#570,.T.);
#572=ADVANCED_FACE('',(#568,#571),#560,.T.);
#573=CARTESIAN_POINT('',(-1.110223E-015,3.280204E-016,0.0));
#574=DIRECTION('',(0.0,0.0,1.0));
#575=DIRECTION('',(1.0,0.0,0.0));
#576=AXIS2_PLACEMENT_3D('',#573,#574,#575);
#577=PLANE('',#576);
#578=ORIENTED_EDGE('',*,*,#165,.T.);
#579=ORIENTED_EDGE('',*,*,#210,.T.);
#580=ORIENTED_EDGE('',*,*,#345,.T.);
#581=ORIENTED_EDGE('',*,*,#388,.T.);
#582=ORIENTED_EDGE('',*,*,#313,.T.);
#583=ORIENTED_EDGE('',*,*,#268,.T.);
#584=EDGE_LOOP('',(#578,#579,#580,#581,#582,#583));
#585=FACE_OUTER_BOUND('',#584,.T.);
#586=ORIENTED_EDGE('',*,*,#119,.T.);
#587=EDGE_LOOP('',(#586));
#588=FACE_BOUND('',#587,.T.);
#589=ADVANCED_FACE('',(#585,#588),#577,.F.);
#590=CLOSED_SHELL('',(#95,#123,#135,#182,#227,#272,#317,#362,#405,#437,#462,#487,#512,#537,#555,#572,#589));
#591=MANIFOLD_SOLID_BREP('T\X2\011B\X0\leso1',#590);
#592=COLOUR_RGB('Kov-Ocel',0.639216005802155,0.639216005802155,0.686275005340576);
#593=FILL_AREA_STYLE_COLOUR('Kov-Ocel',#592);
#594=FILL_AREA_STYLE('Kov-Ocel',(#593));
#595=SURFACE_STYLE_FILL_AREA(#594);
#596=SURFACE_SIDE_STYLE('Kov-Ocel',(#595));
#597=SURFACE_STYLE_USAGE(.BOTH.,#596);
#598=PRESENTATION_STYLE_ASSIGNMENT((#597));
#599=STYLED_ITEM('',(#598),#591);
#600=MECHANICAL_DESIGN_GEOMETRIC_PRESENTATION_REPRESENTATION('',(#599),#36);
#601=ADVANCED_BREP_SHAPE_REPRESENTATION('ABSR',(#591),#36);
#602=SHAPE_REPRESENTATION_RELATIONSHIP('SRR','None',#601,#41);
ENDSEC;
END-ISO-10303-21;
